Omega (Guitar Tab) by Knights

(/) Slide Up  (\) Slide Down  (h) Hammer On  (p) Pull Off  (b) Bend (r) Release (v) Vibrato
E|--------------------------------------------------------------------------
B|--------------------------------------------------------------------------
G|--------------------------------------------------------------------------
D|--------------------------------------------------------------------------
A|--------------------------------------------------------------10----------
E|--0--10--12--10--0--10--12--10--12--0--10--12--10--0--10--12------12--10--



E|------------------------------------------------------------------------------------------
B|------------------------------------------------------------------------------------------
G|------------------------------------------------------------------------------------------
D|------------------------------------------------------------------------------------------
A|----------------------------------------10------------------------------------------------
E|--0--3--0--5--6--7--0--0--3--0--10--12------12--0--3--0--5--6--7--0--0--3--0--3--0--3--5--



E|-----------------------------
B|-----------------------------
G|-----------------------------
D|-----------------------------
A|-----------------------------
E|--0--0--3--0--5--0--5--6--7--



E|--------------------------------------------------------------------------------------
B|--------------------------------------------------------------------------------------
G|--------------------------------------------------------------------------------------
D|--------------------------------------------------------------------------------------
A|-----7-----5--------------------------------------------------------------7--5--------
E|--0-----0-----0--7--6--5--3--3--0--3--0--3--3--0--3--0--5--5--0--5--0--5--------7--5--



E|-----------------------------------------------------
B|-----------------------------------------------------
G|-----------------------------9--7--5--4--5--7--8--9--
D|-----------------------------------------------------
A|-----------------5--5--6--6--7--5--3--2--3--5--6--7--
E|--7--7--0--7--0--------------------------------------



E|--8---8---8---8---8---8---7--
B|--10--10--10--10--10--10--7--
G|--10--9---10--9---10--9---8--
D|-----------------------------
A|-----------------------------
E|-----------------------------



E|------------------------------------------------------------
B|------------------------------------------------------------
G|------------------------------------------------------------
D|--15--------------------------14--------------------13------
A|------15--12----------12--15----------------------------14--
E|--------------13--12----------------------------------------



E|-----------------------------------------------------------------------------------------------
B|-----------------------------------------------------------------------------------------------
G|-----------------------------------------------------------------------------------------------
D|-----------------------------------------------------------------------------------------------
A|-----------------------------------------------------------------------------------------------
E|--12--0--11--0--12--0--10--0--12--0--9--0--12--0--8--0--12--0--7--0--12--0--6--0--12--0--5--0--



E|------------------
B|------------------
G|--10--10--10--10--
D|--10--10--10--10--
A|--8---8---8---8---
E|------------------



E|-----------------------------------------------------------------------------------------------
B|-----------------------------------------------------------------------------------------------
G|-----------------------------------------------------------------------------------------------
D|-----------------------------------------------------------------------------------------------
A|-----------------------------------------------------------------------------------------------
E|--12--0--11--0--12--0--10--0--12--0--9--0--12--0--8--0--12--0--7--0--12--0--6--0--12--0--5--0--



E|-------------------------------------------------------
B|-------------------------------------------------------
G|-------------------------------------------------------
D|--3--3--3--3----2--2----2--2----2--2-------------------
A|--3--3--3--3----2--2----2--2----2--2------------10-----
E|--1--1--1--1----0--0----0--0----0--0----10--12------12\
http://www.guitartabcreator.com
Guitar Tab Creator is intended to store guitar tab created through the tool. It currently does not support in-line text editing. Any text you place in here will be lost. If you need to comment on your tab, please use the "Tab Notes" section located below.