Omega - Bass Tab

(/) Slide Up  (\) Slide Down  (h) Hammer On  (p) Pull Off  (b) Bend (r) Release (v) Vibrato


E|---------------------------------
B|---------------------------------
G|---------------------------------
D|---------------------------------
A|-----------------5--5--10--9-----
E|--7--7--0--7--0------------------



E|------------------------------------------------------------------------
B|------------------------------------------------------------------------
G|------------------------------------------------------------------------
D|------------------------------------------------------------------------
A|--8--8--0--10--0--12--12--0--14--0--15--15--0--17--0--19--19--0--10--0--
E|------------------------------------------------------------------------



E|---------------------------------------------------------------------
B|---------------------------------------------------------------------
G|---------------------------------------------------------------------
D|---------------------------------------------------------------------
A|--12h14--14--14--12h14--14--14--12h14--14--14--0h2--2--2--0h2--2--2--
E|---------------------------------------------------------------------



E|-----------
B|-----------
G|--9--------
D|-----------
A|-----7-----
E|-----------



E|--------------
B|--------------
G|--------------
D|--------------
A|--8--8--8--8--
E|--------------



E|---------
B|---------
G|---------
D|---------
A|---------
E|--12--0--



E|-------------------------------------------
B|-------------------------------------------
G|-------------------------------------------
D|-------------------------------------------
A|-------------------------------------------
E|--1--1--1--1----0--0----0--0----0--0----0--



E|---------
B|---------
G|---------
D|---------
A|---------
E|--0--12--



E|--------------------------------------------
B|--------------------------------------------
G|--------------------------------------------
D|--------------------------------------5-----
A|--------------------------------5--7-----7--
E|--0--3--0--5--6--7--0--0--3--0--------------



E|--------------------------------------------
B|--------------------------------------------
G|--------------------------------------------
D|--------------------------------------------
A|--------------------------------------------
E|--0--3--0--5--6--7--0--0--3--0--3--0--3--5--



E|--------------------------------------------------------------
B|--------------------------------------------------------------
G|--------------------------------------------------------------
D|--------------------------------------------------------------
A|---------------------------10---------------------------------
E|--0----0--0----0----10h12------12p10--12\--0--0--0----0--3h5--



E|---------------------------
B|---------------------------
G|---------------------------
D|---------------------------
A|---------------------------
E|--0--0--3--0--5--0--5h6h7--



E|-------------------------------------------------------------------------------------
B|-------------------------------------------------------------------------------------
G|-------------------------------------------------------------------------------------
D|-------------------------------------------------------------------------------------
A|-----7-----5-------------------------------------------------------------7--5--------
E|--0-----0-----0--7--6--5--3--3--0h3--0h3--3--0h3--0--3/5--5--0--5--0--5--------7--5--



E|-------------------
B|-------------------
G|-------------------
D|-------------------
A|-------------------
E|--7--7--0h7--0-----
http://www.guitartabcreator.com
Guitar Tab Creator is intended to store guitar tab created through the tool. It currently does not support in-line text editing. Any text you place in here will be lost. If you need to comment on your tab, please use the "Tab Notes" section located below.