Celeritas - Guitar Tab

(/) Slide Up  (\) Slide Down  (h) Hammer On  (p) Pull Off  (b) Bend (r) Release (v) Vibrato

E|--------------------------
B|--------------------------
G|--------6--7--9--7--6-----
D|--8--9-----------------9--
A|--------------------------
E|--------------------------



E|--------------------------------------------
B|--------------------------------------------
G|--7--9--6--7--6--7--9--13--13----12--11--9--
D|--9--9--7--7--7------------------12--8---8--
A|--9--9--7--7--7--5--7--11--11----10--9---9--
E|-----------------------12-------------------



E|-----------------------------------------------------
B|-----------------------------------------------------
G|--11--9--7--6--7--6--7--9--13--13----12--11--9-------
D|--9---9--9--7--7--7------------------12--8---8--9----
A|--9---9--9--7--7--7--5--7--11--11----10--9---9--9----
E|---------------------------12-------------------7----



E|--------------------------------------7--------7-----------
B|--------------------------------9--9-----8--8-----7--------
G|-----7--9--7--9--6--7--9--7--9-----------------------------
D|--9--------------------------------------------------8-----
A|-----------------------------------------------------------
E|-----------------------------------------------------------



E|-----------------------------------
B|-----------------------------------
G|-----------------------------------
D|--9--9--8--9--9--9--9--8--9--9-----
A|-----------------------------------
E|-----------------------------------



E|-------------------------------------------------------------------9-----12--10------------
B|-------------------------------------------------------12--11--12-----9----------11--12----
G|-------------------------12--11--9---------------------------------------------------------
D|--11--9--11--12--11--12-------------12--11--12--11--9--------------------------------------
A|-------------------------------------------------------------------------------------------
E|-------------------------------------------------------------------------------------------



E|-------------------------------------------------------------------------------------------
B|--12---------------------------------------------------------------------------------------
G|--14b16--18b19r18--16------16----------16--18--18b19r18--16h18p16----------16----------16--
D|-----------------------19------19--19------------------------------19--18------18--18------
A|-------------------------------------------------------------------------------------------
E|-------------------------------------------------------------------------------------------



E|------------------------------------------------------------------------------------------
B|------------------------------------------------------------------------------------------
G|------16--18b19r18--16h18p16----------16----------16----------16----------18------18------
D|--18--------------------------18--17------17--17------17--16------16--16------16------16--
A|------------------------------------------------------------------------------------------
E|------------------------------------------------------------------------------------------



E|--------------------------------------------------------------------------------------------------------------
B|--------------------------------------------------------------------------------------------------------------
G|--------------------------------------------------------------------------------------------------------------
D|--9--9--------11--11--------12--12--------11--11--------9--9--------11--11--------12--12--------11--11--------
A|--------9--9----------9--9----------9--9----------9--9--------9--9----------9--9----------9--9----------9--9--
E|--------------------------------------------------------------------------------------------------------------



E|--------------------------------------------------------------------------------------------------------------
B|--------------------------------------------------------------------------------------------------------------
G|----------------9--9----------------9--9--------------------------------------------------------11--11--------
D|----------9--9----------------9--9----------------9--9----------9--9--12--12--9--9--------8--8----------8--8--
A|--11--11--------------11--11--------------11--11--------10--10----------------------9--9----------------------
E|--------------------------------------------------------------------------------------------------------------



E|--19--21--19--21--19--21--19--21--19--21--19--21--19--21--19--21--19--21--19--21--19--21--19--
B|----------------------------------------------------------------------------------------------
G|----------------------------------------------------------------------------------------------
D|----------------------------------------------------------------------------------------------
A|----------------------------------------------------------------------------------------------
E|----------------------------------------------------------------------------------------------



E|--21------21------21------21------21------21------21------21---------
B|------21------21------21------21------21------21------21------21-----
G|---------------------------------------------------------------------
D|---------------------------------------------------------------------
A|---------------------------------------------------------------------
E|---------------------------------------------------------------------



E|--21------21------21------21------21------21----------------------
B|------20------20------20------20------19------19--21--19--21--19--
G|------------------------------------------------------------------
D|------------------------------------------------------------------
A|------------------------------------------------------------------
E|------------------------------------------------------------------



E|-------------------------------------------------------
B|-------------------------------------------------------
G|--4--4--6--6b7r6--4-----4--------4--6--6b7r6--4h6p4----
D|---------------------7-----7--7----------------------7\
A|-------------------------------------------------------
E|-------------------------------------------------------



E|----------------------------
B|----------------------------
G|----------------------------
D|--2--2--2--2----2--2--2--2--
A|--2--2--2--2----2--2--2--2--
E|--0--0--0--0----0--0--0--0--



E|-----------------------------------------------
B|-----------------------------------------------
G|-----4--------4--------4--------6-----6-----4--
D|--5-----5--5-----5--4-----4--4-----4-----4-----
A|-----------------------------------------------
E|-----------------------------------------------
http://www.guitartabcreator.com
Guitar Tab Creator is intended to store guitar tab created through the tool. It currently does not support in-line text editing. Any text you place in here will be lost. If you need to comment on your tab, please use the "Tab Notes" section located below.