Tom Sawyer

(/) Slide Up  (\) Slide Down  (h) Hammer On  (p) Pull Off  (b) Bend (r) Release (v) Vibrato


E|--------------------------------------------------------
B|--------------------------------------------------------
G|--------------------------------------------------------
D|-----------9-------------7-------------2-------------5--
A|-----------7-------------5-------------0-------------3--
E|--0--0--0-------0--0--0-------0--0--0-------0--0--0-----



E|--------------------
B|--------------------
G|--------------------
D|--5--5--5--5--5--5--
A|--3--2--0--3--2--0--
E|--------------------
http://www.guitartabcreator.com
Guitar Tab Creator is intended to store guitar tab created through the tool. It currently does not support in-line text editing. Any text you place in here will be lost. If you need to comment on your tab, please use the "Tab Notes" section located below.