C Mixolydian 3 fingerings

(/) Slide Up  (\) Slide Down  (h) Hammer On  (p) Pull Off  (b) Bend (r) Release (v) Vibrato


E|-----------------------------|-------------------------------
B|-----------------------------|-------------------------------
G|-----------------------------|-------------------------------
D|-------------------7--8--10--|------------------------8--10--
A|---------7--8--10------------|-------------8--10--12---------
E|--8--10----------------------|--8--10--12--------------------



E|--------------------------
B|--------------------------
G|-----------------------5--
D|--------------5--7--8-----
A|-----5--7--8--------------
E|--8-----------------------
http://www.guitartabcreator.com
Guitar Tab Creator is intended to store guitar tab created through the tool. It currently does not support in-line text editing. Any text you place in here will be lost. If you need to comment on your tab, please use the "Tab Notes" section located below.