Let em Bleed

(/) Slide Up  (\) Slide Down  (h) Hammer On  (p) Pull Off  (b) Bend (r) Release (v) Vibrato


E|--------------------
B|--------------------
G|--------------------
D|--------------------
A|--2--2-----2--2-----
E|--0--0--0--0--0--0--



E|----------------------------------------------------------------------------------------------
B|----------------------------------------------------------------------------------------------
G|----------------------------------------------------------------------------------------------
D|------------------------------------7---------------------------------------------------------
A|--7h8p7--------5h6p5--------7/8-----5--------7\5--7h8p7--------5h6p5--------------------------
E|---------0--0---------0--0--5-6--0-----0--0--5-3---------0--0---------0--0--6--5--3--5--3--2--



E|--------------------------------------------------------------
B|--------------------------------------------------------------
G|--------------------------------------------------------------
D|--------------------------------------------------------------
A|--------------------8\5--7-4/8-5/7-5--8--7--5--7--5--4--5--4--
E|--6--6--3--5--5--2--6-3--5\2-6\3-5\3--6--5--3--5--3--2--3--2--



E|--------------------------------------------------------------------------------------------------
B|--------------------------------------------------------------------------------------------------
G|--------------------------------------------------------------------------------------------------
D|--------------------------------------------------------------------------------------------------
A|--4-----------4-----------4-----------5-----------4-----------4-----------4-----------5--------3--
E|-----0--2--3-----0--2--3-----0--2--3-----0--2--3-----0--2--3-----0--2--3-----0--2--3-----2--2-----



E|-------
B|-------
G|-------
D|-------
A|--4-3--
E|--2\1--



E|--------------------------------------------------------------------------------------------------
B|--------------------------------------------------------------------------------------------------
G|--------------------------------------------------------------------------------------------------
D|--------------------------------------------------------------------------------------------------
A|--3/4--------------------5-6--------------------7-8--------------------5h6p5---------------7h8p7--
E|--1-2--0--0--0--0--0--0--3/4--0--0--0--0--0--0--5/0--0--0--0--0--0--0---------0--5h6p5--0---------



E|---------------------------------------------------------------------------------------------
B|---------------------------------------------------------------------------------------------
G|-----------------------------------------------------------------------10\9-------------8\7--
D|---------------------------------------------------------------------------------------------
A|--3-4--------------------5-6--------------------7-8--------------------8--7-----7-8-----6-5--
E|--1/2--0--0--0--0--0--0--3/4--0--0--0--0--0--0--5/6--0--0--0--0--0--0--------0--5/6--0-------
http://www.guitartabcreator.com
Guitar Tab Creator is intended to store guitar tab created through the tool. It currently does not support in-line text editing. Any text you place in here will be lost. If you need to comment on your tab, please use the "Tab Notes" section located below.