Katchem and Killem mid 8

(/) Slide Up  (\) Slide Down  (h) Hammer On  (p) Pull Off  (b) Bend (r) Release (v) Vibrato


E|----------------------------------------------------------------------------------------
B|----------------------------------------------------------------------------------------
G|----------------------------------------------------------------------------------------
D|--------3/4--4--------8-5--5--------3-4--4----------------------------------------------
A|--------1-2--2--------6-3--3--------1-2--2-----------4-----------3--4----3----7---------
E|--0--0--1-2--2--0--0--6\3--3--0--0--1/2--2--0--3--6-----0--3--6--------------------6p6--



E|--------------------------------------------------------------------------------------|-----------
B|--------------------------------------------------------------------------------------|-----------
G|--------------------------------------------------------------------------------------|-----4-----
D|--6-----4-----5--------6-----4-----5--------------6-----4-----5--------6-----4-----5--|--4-----4--
A|--4-----2-----3--5--4--4-----2-----3-----5--4--3--4-----2-----3--5--4--4-----2-----3--|-----------
E|-----0-----0-----3--2-----0-----0-----0--3--2--1-----0-----0-----3--2-----0-----0-----|-----------



E|-----------------------------------------------------------------------------------------------
B|-----------------------------------------------------------------------------------------------
G|--------------------------5--3-----------7-----------------------------------------------------
D|--------------------------2--3-----------5--6--------------------------------------------------
A|--------3--------3-----3--------0--5--4-----4--------3--------3-----3--------------------6--5--
E|--0--0--1--0--0--1--0--1-----------------------0--0--1--0--0--1--0--1--0--0--0--0--0--0--4--3--



E|--------------------------------------------------
B|--------------------------------------------------
G|--------------------------------------------------
D|--------------------------------------------------
A|--------------------------------------------------
E|--0--3--2--3--1--3--2--3--0--3--2--3--1--3--2--3--



E|---------------------------------------------------------------------------
B|---------------------------------------------------------------------------
G|---------------------------------------------------------------------------
D|----------------4h5h7-----------------------3h4h6-----------------------3--
A|---------3h4h6---------4h5h7---------2h3h5---------3h4h6---------2h3h5-----
E|--2h3h5-----------------------1h2h4-----------------------1h2h4------------



E|---------------------------------------------------------------------
B|---------------------------------------------------------------------
G|---------4h5h7-------------------------------------------------------
D|--3h4h6--------------------------------------------------------------
A|----------------------------------------------------8\5-----7--4--5--
E|----------------6--3--0--5--2--0--6--3--0--5--2--0--6-3--0--5--2--3--
http://www.guitartabcreator.com
Guitar Tab Creator is intended to store guitar tab created through the tool. It currently does not support in-line text editing. Any text you place in here will be lost. If you need to comment on your tab, please use the "Tab Notes" section located below.