Katchem and Killem

(/) Slide Up  (\) Slide Down  (h) Hammer On  (p) Pull Off  (b) Bend (r) Release (v) Vibrato


E|-----------------------------------------------------------------------------------------------
B|-----------------------------------------------------------------------------------------------
G|-----------------------------------------------------------------------------------------------
D|------------------------7-----------------6----------------------------------------------------
A|--8-----------10--------------5-----7--------7--7-----6-----7\3-----3--------------------7--6--
E|-----0--7--0------9--0-----0-----0-----0--------5--0--4--0--5-1--0--1--0--5--5--4--8--7--------



E|-------------------------------------------------------------------------------------------------
B|-------------------------------------------------------------------------------------------------
G|-------------------------------------------------------------------------------------------------
D|-------------------------10-----------------9----------------------------------------------------
A|--8-----------11----------------7-----8--------7--7-----6-----7\3-----3--------------------7--6--
E|-----0--7--0------10--0------0-----0-----0--------5--0--4--0--5-1--0--1--0--5--5--4--8--7--------



E|-------------------------------------------------
B|-------------------------------------------------
G|-------------------------------------------------
D|-------------------------------------------------
A|--7-----6-----7\3-----3-----7-----6-----7--6--3--
E|--5--0--4--0--5-1--0--1--0--5--0--4--0--5--4--1--



E|---------------------------------------------------------------------------
B|---------------------------------------------------------------------------
G|---------------------------------------------------------------------------
D|---------------------------------------------------------------------------
A|--7-----4-----6-----3-----7-----4-----5--4/9--8--7--7\4-6\--7--7--6--5--4--
E|--5--0--2--0--4--0--1--0--5--0--2--0--3--2-7--6--5--5-2/4---5--5--4--3--2--



E|-----------------------------------------------------------------------------
B|-----------------------------------------------------------------------------
G|-----------------------------------------------------------------------------
D|-----------------------------------------------------------------------------
A|--------------3--4--------------8--5--------------3--4--------------------4--
E|--0--0--1--0--1--2--0--0--1--0--6--3--0--0--1--0--1--2--0--0--1--0--6--3-----
http://www.guitartabcreator.com
Guitar Tab Creator is intended to store guitar tab created through the tool. It currently does not support in-line text editing. Any text you place in here will be lost. If you need to comment on your tab, please use the "Tab Notes" section located below.