Juggernaut Mid 8

(/) Slide Up  (\) Slide Down  (h) Hammer On  (p) Pull Off  (b) Bend (r) Release (v) Vibrato


E|-------------------------------------------------------------------
B|---------------------------------10--9-----------------------------
G|--------------------------10--9------------------------------------
D|--------------------7--6-------------------------------------------
A|--------------8--7----------------------------------8-----------5--
E|--0--0--0--0----------------------------0--0--0--0-----7--0--4-----



E|----------------------------------------------------------------------------------------------------
B|----------------------------------------------------------------------------------------------------
G|----------------------------------------------------------------------------------------------------
D|----------------------------------------------------------------------------------------------------
A|--------------------------------------------5--4--------------------------5--------4----------3-----
E|--0--2--3--0--3--6--0--2--3--0--3--6--0--3--------0--2--3--0--3--6--0--3-----0--3-----0--3h4-----4--



E|--------------------------------------------------------------------------------------------------------
B|--------------------------------------------------------------------------------------------------------
G|--------------------------------------------------------------------------------------------------------
D|--------------------------------------------------------------------------------------------------------
A|--8--7-----11--10-----14--13-----11--10-----------10----------8--7-----11--10-----14--13-----11--10-----
E|--------0----------0----------0----------0--9h11------11--10--------0----------0----------0-------------



E|-----------------------------------------------------------------------
B|-----------------------------------------------------------------------
G|-----------------------------------------------------------------------
D|-----------------------------------------------------------------------
A|-----------10--------9--10-----11--10-----14--13-----------10----------
E|--0--9h11------8h10---------0----------0----------0--9h11------11--10--



E|--------------------------------------------------------------------
B|--------------------------------------------------------------------
G|--------------------------------------------------------------------
D|--------------------------------------------------------------------
A|--8--7-----11--10-----14--13\13--------10--------9-------8-------7--
E|--------0----------0-------------9h11------8h10-----7h9-----6h8-----



E|-------------------------------------------
B|-------------------------------------------
G|-------------------------------------------
D|-------------------------------------------
A|--4/5-3--------------6-7\5--4--------------
E|--2-3\1--0--0--0--0--4/5-3--2--2--2--2--2--
http://www.guitartabcreator.com
Guitar Tab Creator is intended to store guitar tab created through the tool. It currently does not support in-line text editing. Any text you place in here will be lost. If you need to comment on your tab, please use the "Tab Notes" section located below.