JUGGERNAUT

(/) Slide Up  (\) Slide Down  (h) Hammer On  (p) Pull Off  (b) Bend (r) Release (v) Vibrato


E|------------------
B|------------------
G|------------------
D|------------------
A|------------------
E|--2/3\2----2/3\2--



E|-------------------------------------------------------------------------------------
B|-----------------7--------------------------------------------7----------------------
G|-----------7--6-----6--7-----------7--6--4--6-----------7--6-----6--7/9--7--6h7p6\4--
D|--4--5--4-----------------4--5--4--------------4--5--4-------------------------------
A|-------------------------------------------------------------------------------------
E|-------------------------------------------------------------------------------------



E|-------------------------------------------------------
B|-------------------------------------------------------
G|-------------------------------------------------------
D|-------------------------------------------------------
A|-------------------------------------------------7-----
E|--0--0--1--0--3--0--2--0--3--0--1--0--6--0--5h6--------



E|----------------------------------------------------------------------
B|----------------------------------------------------------------------
G|----------------------------------------------------------------------
D|----------------------------------------------------------------------
A|----------------------------------------------------------------------
E|--0--0--1--0--3--0--2--0--6--5--3--5--8--6--5--6--10--8--6--5--8p6p5--
http://www.guitartabcreator.com
Guitar Tab Creator is intended to store guitar tab created through the tool. It currently does not support in-line text editing. Any text you place in here will be lost. If you need to comment on your tab, please use the "Tab Notes" section located below.