Project 1

(/) Slide Up  (\) Slide Down  (h) Hammer On  (p) Pull Off  (b) Bend (r) Release (v) Vibrato

E|-------------------------------------------------------------------------------------
B|-------------------------------------------------------------------------------------
G|------12---------12------12---------12------------12--------12-----12--------12------
D|---10---------10------------10---------10------10--------10-----------10--------10---
A|-0----------0----------0----------0----------0---------0---------0---------0---------
E|---------0----------0----------0----------0----------0---------0---------0---------0-

Stave 1:

E|-------------0----------------0----------------0----------------0-------------------0--------------
B|---------------------------------------------------------------------------------0-----------------
G|---------12---------------12-----------12---------------12-------------------12--------------------
D|-----10---------------10-------------------10---------------10-----------10------------------------
A|--0----------------0----------------0----------------0----------------0----------------------------
E|----------------0----------------0----------------0----------------0-------------------------------

Stave 2:

E|--------------------------------------------------------------------------------------------------
B|--------------------------------------------------------------------------------------------------
G|--------------------------------------------------------------------------------------------------
D|--------------------------------------------------------------------------------------------------
A|--7--7--7--7--5--5--5--5--3--3--3--3--2--2--2--2--7--7--7--7--5--5--5--5--3--3--3--3--2--2--2--2--
E|--------------------------------------------------------------------------------------------------

Stave 3:

E|-----------------------------------------------------
B|-----------------------------------------------------
G|-----------------------------------------------------
D|-----------------------------------------------------
A|--7--7--7--7--5--5--5--5--3--3--3--3--2--2--2--2--2--
E|--5--5--5--5--3--3--3--3--1--1--1--1--0--0--0--0--0--

Stave 4:

E|---------------------------
B|---------------------------
G|-----12--11--9--9--11--12--
D|--9------------------------
A|---------------------------
E|---------------------------

Stave 5:

E|--------------------------------------------------------------------------------------------------------------------------------
B|--------------------------------------------------------------------------------------------------------------------------------
G|--11--11--11--11--11--11--11--11--12--12--12--12--12--12--12--12--9--9--9--9--9--9--9--9--7--7--7--7--7--7--7--7--11--12--9--7--
D|------------------------------------------------------------------------------------------------------------------0---0---0--0--
A|--------------------------------------------------------------------------------------------------------------------------------
E|--------------------------------------------------------------------------------------------------------------------------------

Stave 6:

E|--------------------------------------
B|--------0--------0--------0--------0--
G|-----4--------4--------4--------4-----
D|--6--------6-----------------6--------
A|--------------------------------------
E|--------------------0-----------------

Stave 7:

E|--------------------------------
B|--------------------------------
G|--------------------------------
D|-----7--5--3--2-----3--2--------
A|--5--------------3--------3--5--
E|--------------------------------

Stave 8:

E|-----------------------------------------------------------------------------------
B|--------4--------4--------4--------4--------3--------3--------3--------3--------3--
G|-----0--------0--------0--------0--------0--------0--------0--------0--------0-----
D|--5--------5--------5--------5--------5--------5--------5--------5--------5--------
A|-----------------------------------------------------------------------------------
E|-----------------------------------------------------------------------------------

Stave 9:

E|--0---0---------0------------0-----------0-----------0-----
B|--0---0------------0------------0-----------0-----------0--
G|--11--9-----11-----------11-----------9-----------9--------
D|--9---7--9------------9------------7-----------7-----------
A|-----------------------------------------------------------
E|-----------------------------------------------------------

Stave 10:

E|-----------------------------------------------------
B|-----------------------------------------------------
G|-----------------------------------------------------
D|-----------------------2--1--------------------2--4--
A|--4--4--4--4--4--4--4--------4--4--4--4--4--4--------
E|-----------------------------------------------------

Stave 11:

E|-----9-----9-----7-----7-----5-----5-----4-----4-----4-----4-----5-----5-----7-----7-----9-----9-----11-----11-----12-----12--
B|--7-----7-----9-----9-----7-----7-----7-----7-----7-----7-----7-----7-----9-----9-----7-----7-----9------9------9------9------
G|------------------------------------------------------------------------------------------------------------------------------
D|------------------------------------------------------------------------------------------------------------------------------
A|------------------------------------------------------------------------------------------------------------------------------
E|------------------------------------------------------------------------------------------------------------------------------

Stave 12:

E|-----9-----9-----11-----11-----12-----12-----11-----9--
B|--9-----9-----9------9------9------9------9------9-----
G|-------------------------------------------------------
D|-------------------------------------------------------
A|-------------------------------------------------------
E|-------------------------------------------------------

Stave 13:

E|--0--------------------0--------------------0--------------------
B|--0--------------0-----1--------------1-----1--------------1-----
G|--0--------0--------0--0--------0--------0--2--------2--------2--
D|--2--2--------2--------2--2--------2--------2--2--------2--------
A|--2-----2--------------3-----3--------------0-----0--------------
E|--0--------------------0--------------------0--------------------

Stave 14:

E|----------------------------------------------------------
B|----------------------------------------------------------
G|----------------------------------------------------------
D|----------------------------------------------------------
A|--------7--------7--------8--------8--------10--------10--
E|--5--5-----5--5-----6--6-----6--6-----8--8------8--8------

Stave 15:

E|--------------------------------------
B|--------------------------------------
G|--------------------------------------
D|--------9--------9--------9--------9--
A|--7--7-----7--7--------7--------7-----
E|--------------------8--------8--------

Stave 16:

E|--------------------------------------------------
B|--------------------------------------------------
G|--------------------------------------------------
D|--------------------------------------------------
A|-----7-----7-----7-----7-----7-----7-----7-----7--
E|--9-----9-----7-----7-----5-----5-----4-----4-----

Stave 17:

E|-----------------------------------------------------------------------------------------
B|-----------------------------------------------------------------------------------------
G|--------9-----------9-----------7-----------7-----------5-----------5-----------4--------
D|-----7-----7-----7-----7-----5-----5-----5-----5-----7-----7-----7-----7-----7-----7-----
A|--0-----------0-----------0-----------0-----------0-----------0-----------0-----------0--
E|-----------------------------------------------------------------------------------------

Stave 18:

E|--------------------------------------------------
B|--5--3--------------------5--3--------------------
G|--------4--5--2--3--5--7--------4--5--2--3--5--7--
D|--------------------------------------------------
A|--------------------------------------------------
E|--------------------------------------------------

Stave 19:

E|-------------------------------------------------------------------------------
B|----------3--------3--------3--------3--------3--------3--------3-----------3--
G|-------4--------4--------4--------4--------------------------------------------
D|----4--------4--------5--------5-----------4--------4--------0-----------0-----
A|----------------------------------------5--------5--------4--------4--4--------
E|-------------------------------------------------------------------------------

Stave 20:

E|--0--0--0--
B|--0--0--0--
G|--5--0--0--
D|--5--5--5--
A|--0--7--3--
E|--5--0--0--

Stave 21:

E|--------------------------------------------------
B|--------------------------------------------------
G|--------6-----------6-----------6-----------6-----
D|-----4-----4-----4-----4-----------0-----------0--
A|--4-----------5--------------4-----------0--------
E|--------------------------5-----------4-----------

http://www.guitartabcreator.com
Guitar Tab Creator is intended to store guitar tab created through the tool. It currently does not support in-line text editing. Any text you place in here will be lost. If you need to comment on your tab, please use the "Tab Notes" section located below.