#2

(/) Slide Up  (\) Slide Down  (h) Hammer On  (p) Pull Off  (b) Bend (r) Release (v) Vibrato

E|-------5-------------------------7--10--7-----------------------------
B|--3/5-----5----------5/8--5----------------8/10----8-----10--8--------
G|-------------7----4-----------------------------------9---------9/12--
D|----------------------------------------------------------------------
A|----------------------------------------------------------------------
E|----------------------------------------------------------------------

E|----------------------------------------5--
B|----------------------------------------3--
G|--9-------------------------------------2--
D|-----12--10--9--7--5h7p5-----5/2--0-----0--
A|--------------------------8----------------
E|-------------------------------------------
Guitar Tab Creator is intended to store guitar tab created through the tool. It currently does not support in-line text editing. Any text you place in here will be lost. If you need to comment on your tab, please use the "Tab Notes" section located below.