Oh Sleeper ~ Chewing the Stitch Pre-Chorus and part of Chorus

(/) Slide Up  (\) Slide Down  (h) Hammer On  (p) Pull Off  (b) Bend (r) Release (v) Vibrato


E|------------------------------------------------------------------------------
B|------------------------------------------------------------------------------
G|----------------------------------------------12--14--15--14--12--14--15--17--
D|------------------12--14--12------12--14--15----------------------------------
A|--12--12--13--15--------------15----------------------------------------------
E|------------------------------------------------------------------------------



E|----------------------------------17--18--20--18--17--
B|--15--17--18--17--15--17--18--20----------------------
G|------------------------------------------------------
D|------------------------------------------------------
A|------------------------------------------------------
E|------------------------------------------------------



E|--21--17------------------------------21--17----------------------------------21--17--
B|----------18----------------------18----------18--------------------------18----------
G|--------------19------17--17--19------------------19------17--17--19--19--------------
D|------------------19----------------------------------19------------------------------
A|--------------------------------------------------------------------------------------
E|--------------------------------------------------------------------------------------



E|----------------------------------------------------------21--17--------------------------
B|--18--------------------------18----------------------------------18----------------------
G|------19------17--17--19--19--------------17------17------------------19------17--17--19--
D|----------19--------------------------------------------------------------19--------------
A|----------------------------------19--19------20------20----------------------------------
E|------------------------------------------------------------------------------------------



E|------21--17----------------------------------21--17--
B|--18----------18--------------------------18----------
G|------------------19------17--17--19--19--------------
D|----------------------19------------------------------
A|------------------------------------------------------
E|------------------------------------------------------
http://www.guitartabcreator.com
Guitar Tab Creator is intended to store guitar tab created through the tool. It currently does not support in-line text editing. Any text you place in here will be lost. If you need to comment on your tab, please use the "Tab Notes" section located below.