Mind

(/) Slide Up  (\) Slide Down  (h) Hammer On  (p) Pull Off  (b) Bend (r) Release (v) Vibrato

E|--------------------------------------------------------------------
B|--------------------------------------------------------------------
G|-------12-12-------------12-12-------------0h11-11----------0h11-11-
D|-10-10-------10----10-10-------10----12-12------------12-12---------
A|--------------------------------------------------------------------
E|--------------------------------------------------------------------



E|------------------------------------------------------------------
B|------------------------------------------------------------------
G|-----7-7----------9-9----------------12-12-------------12-12------
D|-9-9-----9----7-7-----7----9-9-10-10-------10----10-10-------10---
A|------------------------------------------------------------------
E|------------------------------------------------------------------



E|---------------------------------------------------------------------
B|---------------------------------------------------------------------
G|-------0h11-11----------0h11-11----------12-12------------14-14------
D|-12-12------------12-12------------14-14-------14---12-12-------12\5-
A|---------------------------------------------------------------------
E|---------------------------------------------------------------------



E|-----------------------------------------------------------------
B|-----------------------------------------------------------------
G|-----------------5-5-5-5-5-5-5-5---------------------------------
D|-5-5-5-5-5-5-5-5-----------------5-5-5-5-5-5-5-5-0-0-0-0-0-0-0-0-
A|-----------------------------------------------------------------
E|-----------------------------------------------------------------



E|-----------------------------------------------------------------
B|-----------------------------------------------------------------
G|-----------------5-5-5-5-5-5-5-5-7-7-7-7-------------------------
D|-5-5-5-5-7-7-7-7-------------------------5-5-5-5-0-0-0-0-0-0-0-0-
A|-----------------------------------------------------------------
E|-----------------------------------------------------------------
http://www.guitartabcreator.com
Guitar Tab Creator is intended to store guitar tab created through the tool. It currently does not support in-line text editing. Any text you place in here will be lost. If you need to comment on your tab, please use the "Tab Notes" section located below.