Area Of Study 1 - Composition - Acoustic Guitar 1

(/) Slide Up  (\) Slide Down  (h) Hammer On  (p) Pull Off  (b) Bend (r) Release (v) Vibrato
E|----------------------------------------------------------------------------------|--
B|----------3-------------------3-------------------3-------------------3-----------|--
G|-------0-----0-----0-------0-----0-----0-------0-----0-----0-------0-----0-----0--|--
D|----------------------------------------------------------------------------------|--
A|--0h2-----------2-----0h3-----------3-----3/5-----------5-----5\3-----------3-----|--
E|----------------------------------------------------------------------------------|--



E|----------3-------------------2--------------|--
B|-------------3-------------------3--------3--|--
G|-------0--------0----------0--------0-----0--|--
D|------------------------------------------0--|--
A|--0h2--------------2--0h3--------------3--5--|--
E|---------------------------------------------|--



E|---------------------------------------------------------------------------------------------------|-
B|-----3-----------3-------------7-----------7-------------8-----------8-------------10-----------10-|-
G|---0---0---0---0---0---0-----0---0---0---0---0---0-----0---0---0---0---0---0-----0----0---0---0----|-
D|---------------------------------------------------------------------------------------------------|-
A|---------------------------------------------------------------------------------------------------|-
E|-3-------3---3-------3---3/5-------5---5-------5---5/7-------7---7-------7---7/8--------8---8------|-



E|-----------|--
B|-----------|--
G|--0-----0--|--
D|-----------|--
A|-----------|--
E|-----8-----|--



E|-------------------------------------------------------|--
B|--12--12--12--8---8---10--10--10--7--7--8--7--5--8--7--|--
G|--0---0---0---0---0---0---0---0---0--0--0--0--0--0--0--|--
D|--0---0---0---0---0---0---0---0---0--0--0--0--0--0--0--|--
A|--10--10--10--10--10--9---9---9---9--9--7--7--7--7--7--|--
E|-------------------------------------------------------|--



E|-----------------------------------------------------------------|--
B|--12--12--12--8---8---10--10--10--7--7--8--7--5------------8--5--|--
G|--0---0---0---0---0---0---0---0---0--0--0--0--0---------0--------|--
D|--0---0---0---0---0---0---0---0---0--0--0--0--0------------------|--
A|--10--10--10--10--10--9---9---9---9--9--7--7--7--0h5h7-----------|--
E|-----------------------------------------------------------------|--



E|---------------------------------------------------------|-
B|-------3-------------3-------------3-------------3-------|-
G|-----0---0---0-----0---0---0-----0---0---0-----0---0---0-|-
D|---------------------------------------------------------|-
A|-0h2-------2---0h3-------3---3/5-------5---5\3-------3---|-
E|---------------------------------------------------------|-



E|-12p10--------------------------------------------------------12p10----------------------|-
B|-------12p10--------------3-------------3-------------3-------------12p10--------------3-|-
G|-------------12p9p7h9---0---0---0-----0---0---0-----0---0---0-------------12p9p7h9---0---|-
D|-----------------------------------------------------------------------------------------|-
A|----------------------3-------3---3/5-------5---5\3-------3------------------------3-----|-
E|-----------------------------------------------------------------------------------------|-



E|-----------|-----|--
B|-----------|--3--|--
G|--0-----0--|--0--|--
D|-----------|--0--|--
A|-----3-----|--5--|--
E|-----------|-----|--



E|------------------------------------------------------------------------------------------|-----
B|--------3-----------------3-------------------7-----------------7-------------------8-----|-----
G|-----0-----0-----0-----0-----0-----0-------0-----0-----0-----0-----0-----0-------0-----0--|-----
D|------------------------------------------------------------------------------------------|-----
A|--3-----------3-----3-----------3-----3/5-----------5-----5-----------5-----5/7-----------|-----
E|------------------------------------------------------------------------------------------|-----



E|------------------------------------------------------------------|--
B|--------------8-------------------10-----------------10-----------|--
G|-----0-----0-----0-----0-------0------0-----0-----0------0-----0--|--
D|------------------------------------------------------------------|--
A|--7-----7-----------7-----7/8------------8-----8------------8-----|--
E|------------------------------------------------------------------|--



E|---------------------------------------------------------------------------------------------|-
B|------12-------------12------------10-----------10-----------8-----------8-----------7-------|-
G|----0----0----0----0----0----0---0----0---0---0----0---0---0---0---0---0---0---0---0---0---0-|-
D|---------------------------------------------------------------------------------------------|-
A|-10--------10---10--------10---9--------9---9--------9---7-------7---7-------7---5-------5---|-
E|---------------------------------------------------------------------------------------------|-



E|---------------------------------------------------------------------------------------|-
B|-----7-----------5-----------5-----------5-----------5-----------4-----------4-------4-|-
G|---0---0---0---0---0---0---0---0---0---0---0---0---0---0---0---0---0---0---0---0---0-0-|-
D|-------------------------------------------------------------------------------------0-|-
A|-5-------5---3-------3---3-------3---3-------3---3-------3---3-------3---3-------3---3-|-
E|---------------------------------------------------------------------------------------|-



E|-------------------------------------------------------|--
B|--12--12--12--8---8---10--10--10--7--7--8--7--5--8--7--|--
G|--0---0---0---0---0---0---0---0---0--0--0--0--0--0--0--|--
D|--0---0---0---0---0---0---0---0---0--0--0--0--0--0--0--|--
A|--10--10--10--10--10--9---9---9---9--9--7--7--7--7--7--|--
E|-------------------------------------------------------|--



E|--------------------------------------------------------------|--
B|--12--12--12--8---8---10--10--10--7--7--8--7--5---------8--5--|--
G|--0---0---0---0---0---0---0---0---0--0--0--0--0---------------|--
D|--0---0---0---0---0---0---0---0---0--0--0--0--0---------------|--
A|--10--10--10--10--10--9---9---9---9--9--7--7--7--0h5h7--------|--
E|--------------------------------------------------------------|--



E|-------------------------------10---------6--7--------|--
B|--12--8---10--7--5--5--12--8---8---10--7--5--5--5--7--|--
G|--0---0---0---0--0--0--0---0-------0---0--------0--0--|--
D|------------------------------------------------------|--
A|--10--10--9---9--7--7--10--10--10--9---9--9--7--7--9--|--
E|------------------------------------------------------|--



E|---------|--10--12--|--3--3--3--3--|--3--------3--------3--------|--
B|--8--10--|--8---10--|--3--3--3--3--|-----3--------3--------3-----|--
G|--0--0---|--0---0---|--0--0--2--2--|-----------------------------|--
D|--0--0---|--0---0---|--0--0--0--0--|-----------------------------|--
A|---------|----------|--2--2--------|-----------------------------|--
E|--8--10--|--8---10--|--3--3--2--2--|--------0--------0--------0--|--



E|-------------------------------------------------------------------|-
B|-----------------3-------------3-------------3-------------3-------|-
G|---------------0---0---0-----0---0---0-----0---0---0-----0---0---0-|-
D|-------------------------------------------------------------------|-
A|-----------0h2-------2---0h3-------3---3/5-------5---5/3-------3---|-
E|-------------------------------------------------------------------|-



E|-12p10--------------------------------------------------------12p10----------------|-
B|-------12p10--------------3-------------3-------------3-------------12p10----------|-
G|-------------12p9p7h9---0---0---0-----0---0---0-----0---0---0-------------12p9p7h9-|-
D|-----------------------------------------------------------------------------------|-
A|----------------------3-------3---3/5-------5---5\3-------3------------------------|-
E|-----------------------------------------------------------------------------------|-



E|---------------|-------|-
B|-----3-------3-|-------|-
G|---0---0---0-0-|---5---|-
D|-------------0-|-5-----|-
A|-3-------3---5-|-----2-|-
E|---------------|-----3-|-
http://www.guitartabcreator.com
Guitar Tab Creator is intended to store guitar tab created through the tool. It currently does not support in-line text editing. Any text you place in here will be lost. If you need to comment on your tab, please use the "Tab Notes" section located below.