Guns N' Roses - Sweet Child O'Mine

(/) Slide Up  (\) Slide Down  (h) Hammer On  (p) Pull Off  (b) Bend (r) Release (v) Vibrato

(A) (B) (C)
eb|-------------15----14----|-------------15----14----|-------------15----14----|-
Bb|----15-------------------|----15-------------------|----15-------------------|-
Gb|-------14-12----14----14-|-------14-12----14----14-|-12----14-12----14----14-|-
Db|-12----------------------|-14----------------------|-------------------------|-
Ab|-------------------------|-------------------------|-------------------------|-
Eb|-------------------------|-------------------------|-------------------------|-


(D)
eb|--12--------------12------14------15------14------12---------------
Bb|----------15-------------------------------------------------------
Gb|------14------14------14------14------14------14------14-----------
Db|-------------------------------------------------------------------
Ab|-------------------------------------------------------------------
Eb|-------------------------------------------------------------------
http://www.guitartabcreator.com
Guitar Tab Creator is intended to store guitar tab created through the tool. It currently does not support in-line text editing. Any text you place in here will be lost. If you need to comment on your tab, please use the "Tab Notes" section located below.