Guitar1

(/) Slide Up  (\) Slide Down  (h) Hammer On  (p) Pull Off  (b) Bend (r) Release (v) Vibrato

E|---------------------------------------------------------------------------------------------------
B|---------------------------------------------------------------------------------------------------
G|--------0--------0----------------0-----------0-----------0--------0-------------0-----0-----0-----
D|--2--2-----2--2-----2--2--2/4--4-----4--0--0-----5--2--2-----2--2-----2--2--2/4-----5-----9--------
A|---------------------------------------------------------------------------------------------------
E|---------------------------------------------------------------------------------------------------



E|--------|-------------------------------------------------------------------------------------
B|--------|-------------------------------------------------------------------------------------
G|-----0--|----------0----------0-----------------0-----0-----0-----0----------0----------0-----
D|--7-----|--10--10-----10--10-----10--10--10/12-----9-----7-----5-----10--10-----10--10--------
A|--------|-------------------------------------------------------------------------------------
E|--------|-------------------------------------------------------------------------------------



E|-------------------------------------------------------------------------------------------
B|-------------------------------------------------------------------------------------------
G|------0---------0-----0--0---0---0-----------0----------0------0---------0-----0-----0-----
D|--10-----10/12-----9-----14--14--14--10--10-----10--10-----10-----10/12-----9-----7-----5--
A|-------------------------------------------------------------------------------------------
E|-------------------------------------------------------------------------------------------



E|--------------------------|-----------------------|--
B|--------------------------|-----------------------|--
G|--0--0--0--0--0--0--0--0--|--0--0--0--0--0--0--0--|--
D|--4--4--4--4--4--4--4--4--|--2--2--2--2--2--2--2--|--
A|--------------------------|-----------------------|--
E|--------------------------|-----------------------|--
http://www.guitartabcreator.com
Guitar Tab Creator is intended to store guitar tab created through the tool. It currently does not support in-line text editing. Any text you place in here will be lost. If you need to comment on your tab, please use the "Tab Notes" section located below.