Yellow Rose

(/) Slide Up  (\) Slide Down  (h) Hammer On  (p) Pull Off  (b) Bend (r) Release (v) Vibrato

E|-----------------------------------------
B|-----------------------------------------
G|--2--2--2--4--1--1--1--2-----2-----------
D|--------------------------4-----0--0-----
A|--------------------------------------4--
E|-----------------------------------------



E|--------------------------------------------------
B|--------------------------------------------------
G|--2--2--2--4--1--1--1--2-----2--------------------
D|--------------------------4-----0--0--0--3--3--3--
A|--------------------------------------------------
E|--------------------------------------------------



E|-----------------------------------------
B|-----------------------------------------
G|--2--2--2--4--1--1--1--2-----2-----------
D|--------------------------4-----0--0-----
A|--------------------------------------4--
E|-----------------------------------------



E|--------------------------------------------
B|--------------------------------------------
G|--2--2--2--4--1--1--1--2-----2--0--0--0--2--
D|--------------------------4-----------------
A|--------------------------------------------
E|--------------------------------------------



E|--------------------------------------
B|--------------------------------------
G|--1--1--1--3--0--0--0--1-----1--------
D|--------------------------3-----0--0--
A|--------------------------------------
E|--------------------------------------



E|--------------------------------------------------
B|--------------------------------------------------
G|--2--2--2--4--1--1--1--2-----2--------------------
D|--------------------------4-----0--0--0--3--3--3--
A|--------------------------------------------------
E|--------------------------------------------------



E|-----------------------------
B|-----------------------------
G|-----2--1--4--2--6--4--6--7--
D|--4--------------------------
A|-----------------------------
E|-----------------------------



E|--------------------
B|--------------------
G|-----------2--1--2--
D|--4--4--4-----------
A|--------------------
E|--------------------



E|-----------------------------------------------
B|-----------------------------------------------
G|--2--2--2--4--1--1--1--2-----2--------2--------
D|--------------------------4-----0--0-----2--2--
A|-----------------------------------------------
E|-----------------------------------------------
http://www.guitartabcreator.com
Guitar Tab Creator is intended to store guitar tab created through the tool. It currently does not support in-line text editing. Any text you place in here will be lost. If you need to comment on your tab, please use the "Tab Notes" section located below.