Song 1

(/) Slide Up  (\) Slide Down  (h) Hammer On  (p) Pull Off  (b) Bend (r) Release (v) Vibrato


E|-----------------------------------------------------------------------------------------
B|-----------------------------------------------------------------------------------------
G|-----------------------------------------------------------------------------------------
D|---------3-3-3-3-2-2-2-2---------3-3-3-3-2-2-2-2---------2-2-2-2-3-3-3-3-5-5-5-5-3-3-3-3-
A|-0-0-0-0-----------------0-0-0-0-----------------0-0-0-0---------------------------------
E|-----------------------------------------------------------------------------------------



E|-----------------
B|-----------------
G|-----------------
D|-2-2-2-2-0-0-0-0-
A|-----------------
E|-----------------



E|-------------------------------------------------------------------------
B|-------------------------------------------------------------------------
G|-9-----9-----8-----8-----9-6-6-6-6-6-8-6-6-9-6-6-------------8-----9-----
D|---7-7---7-7---6-6---6-6-------------------------7-7-7-7-7-7---7-7---7-7-
A|-------------------------------------------------------------------------
E|-------------------------------------------------------------------------
http://www.guitartabcreator.com
Guitar Tab Creator is intended to store guitar tab created through the tool. It currently does not support in-line text editing. Any text you place in here will be lost. If you need to comment on your tab, please use the "Tab Notes" section located below.