Neon Jesus Track1

(/) Slide Up  (\) Slide Down  (h) Hammer On  (p) Pull Off  (b) Bend (r) Release (v) Vibrato

E|-----------------------
B|-----------------------
G|-----------------------
D|--2--2-----------------
A|--2--2--0--5--5--0--7--
E|--0--0--0--3--3--0--5--



E|---------------------------------------
B|---------------------------------------
G|---------------------------------------
D|--2--2--------------2--2---------------
A|--2--2--------------2--2---------------
E|--0--0--5--3--5--3--0--0--3--5--3v-----



E|----------------------------------
B|----------------------------------
G|----------------------------------
D|--2--2----------------------------
A|--2--2--------------5--5/7--7--7--
E|--0--0--5--3--5--3--3--3-5--5--5--



E|-------------------------------------------------------------------
B|-------------------------------------------------------------------
G|-------------------------------------------------------------------
D|--2--2-------------2--2-----------2--2-----------------------------
A|--2--2-------------2--2-----------2--2--------------------5--0--7--
E|--0--0--0h3--0--5--0--0--7--5--3--0--0--0h3--0h3--0h3--0--3--0--5--



E|--------------------------------------------
B|--------------------------------------------
G|--------------------------------------------
D|--------------------------------------------
A|--5--5--0--7--7--0--9--9--9--9--9--9--9--9--
E|--3--3--0--5--5--0--7--7--7--7--7--7--7--7--



E|---------------------------------------------------------------------
B|---------------------------------------------------------------------
G|---------------------------------------------------------------------
D|--2--2-----3--5--2--2-----3--5--3--2--2-----3v--5--2--2-----7--5--3--
A|--2--2--0--3--5--2--2--0--3--5--3--2--2--0--3---5--2--2--0--7--5--3--
E|--0--0--0--3--5--0--0--0--3--5--3--0--0--0--3---5--0--0--0--7--5--3--
http://www.guitartabcreator.com
Guitar Tab Creator is intended to store guitar tab created through the tool. It currently does not support in-line text editing. Any text you place in here will be lost. If you need to comment on your tab, please use the "Tab Notes" section located below.