Spider8reath

(/) Slide Up  (\) Slide Down  (h) Hammer On  (p) Pull Off  (b) Bend (r) Release (v) Vibrato


E|--------------------------------------------------------|--------------------------------------------|--
B|--------------------------------------------------------|--------------------------------6-----------|--
G|--------------------7--------6--------5-----------------|-----------7--------6--5--6--7-----7--6--5--|--
D|--0--3--4--5--5--5-----5--5-----5--5-----5--5--4--3--0--|--5--5--5-----5--5--------------------------|--
A|--------------------------------------------------------|--------------------------------------------|--
E|--------------------------------------------------------|--------------------------------------------|--



E|-----------------------------------------------|-----------------------
B|-----------------------------------------------|-----------------------
G|-----------7--------6--------5-----------------|-----------7--------6--
D|--5--5--5-----5--5-----5--5-----5--5--4--3--0--|--5--5--5-----5--5-----
A|-----------------------------------------------|-----------------------
E|-----------------------------------------------|-----------------------
http://www.guitartabcreator.com
Guitar Tab Creator is intended to store guitar tab created through the tool. It currently does not support in-line text editing. Any text you place in here will be lost. If you need to comment on your tab, please use the "Tab Notes" section located below.