Suffer

(/) Slide Up  (\) Slide Down  (h) Hammer On  (p) Pull Off  (b) Bend (r) Release (v) Vibrato
E|--0---0---0---0-----0---0---0---0---0---0---0---0-----------------------------------------------
B|--10--10--10--10----10--10--10--10--10--10--10--10----------------------------------------------
G|--9---9---9---9---------0---0---0---9---9---9---9-----------------5--------------5--------5-----
D|--10--10--10--10----10--10--10--10--10--10--10--10-------------3-----3--------3--------3--------
A|--0---0---0---0-----0---0---0---0---0---0---0---0-----------5-----------5--5--------5-----------
E|------------------------------------------------------------------------------------------------



E|---------------------------------------------------------------------------
B|-------------------------7--------------10-----------7--------------10-----
G|--------------5-------6-----6--------9------9-----6-----6--------9------9--
D|--3--------3-------7-----------7\10------------7-----------7\10------------
A|-----5--5------------------------------------------------------------------
E|---------------------------------------------------------------------------



E|---------------------------------------------------------------------------------------------
B|--------------------------------------------------------7--------------10--------------------
G|--------5--------------5--------5--------------5-----6-----6--------9------9-----------------
D|-----3-----3--------3--------3-----3--------3-----7-----------7\10---------------------------
A|--5-----------5--5--------5-----------5--5---------------------------------------------------
E|---------------------------------------------------------------------------------------------



E|--------------------------------------0----------0---
B|--------7--------------10-------------10---------10--
G|-----6-----6--------9------9----------9----------10--
D|--7-----------7\10--------------------10---------10--
A|--------------------------------------0----------0---
E|-----------------------------------------------------



E|--0--0--0--0--0--9--9--9--9--0--0--0--0--0--0--0-----0--0--0--0--0--0-----0--
B|--0--0--0--0--0--9--9--9--9--0--0--0--0--0--0--0--3--0--0--0--0--0--0--3--0--
G|--6--6--6--6--7--6--6--6--6--7--6--2--2--2--2--2--2--2--2--2--2--2--2--2--2--
D|--7--7--7--7--7--7--7--7--7--7--7--3--3--3--3--3--3--3--3--3--3--3--3--3--3--
A|--0--0--0--0--0--0--0--0--0--0--0--0--0--0--0--0--------0--0--0--0--0--------
E|-----------------------------------------------------------------------------



E|------------------------------------------------------
B|--0--0--0\0---0---0---0-----------0---0---0---0---0---
G|--6--6--6-9---9---9---9-----------10--10--10--10--10--
D|--7--7--7-10--10--10--10----------10--10--10--10--10--
A|--0--0--0-0---0---0---0-----------0---0---0---0---0---
E|------------------------------------------------------



E|--
B|--
G|--
D|--
A|--
E|--
http://www.guitartabcreator.com
Guitar Tab Creator is intended to store guitar tab created through the tool. It currently does not support in-line text editing. Any text you place in here will be lost. If you need to comment on your tab, please use the "Tab Notes" section located below.