DARPA

(/) Slide Up  (\) Slide Down  (h) Hammer On  (p) Pull Off  (b) Bend (r) Release (v) Vibrato


E|--------------------------------------------------------------------------
B|--------------------------------------------------------------------------
G|--------------------------------------------------------------------------
D|--------------------------------------------------------------------------
A|-----------5--5--5-----------5--4--5--6--6--6--6--6--6--------------------
E|--0--0--0-----------0--0--0-----------------------------7--7--7--1--1--1--



E|--------------------------------------------------------------------
B|--------------------------------------------------------------------
G|--------------------------------------------------------------------
D|--------------------------------------------------------------------
A|--------3--3--3--3--------3--3--3--3--------3--3--6--5--4-----------
E|--2--2--------------2--2--------------2--2-----------------6--5--4--



E|--------------------------------------------------------------------------------------
B|--------------------------------------------------------------------------------------
G|--------------------------------------------------------------------------------------
D|--------------------------------------------------------------------------------------
A|--------3--3--3--3--------3--3--3--3--------3--3--4--4--4--4--4--4--4--4--4--4--4--4--
E|--2--2--------------2--2--------------2--2--------------------------------------------



E|--------------------------------------------------------------------
B|--------------------------------------------------------------------
G|--------------------------------------------------------------------
D|--------------------------------------------------------------------
A|--------3--3--3--3--------3--3--3--3--------3--3--6--6--6--6--6--6--
E|--2--2--------------2--2--------------2--2--------------------------



E|--------------------------------------------------------------------------------------
B|--------------------------------------------------------------------------------------
G|--------------------------------------------------------------------------------------
D|--------------------------------------------------------------------------------------
A|--------3--3--3--3--------3--3--3--3--------3--3--4--4--4--4--4--4--4--4--4--4--4--4--
E|--2--2--------------2--2--------------2--2--------------------------------------------



E|--------------------------------------------------------------------
B|--------------------------------------------------------------------
G|--------------------------------------------------------------------
D|--------------------------------------------------------------------
A|--------3--3--3--3--------3--3--3--3--------3--3--6--5--4-----------
E|--2--2--------------2--2--------------2--2-----------------6--5--4--



E|--------------------------------------------------------------------------
B|--------------------------------------------------------------------------
G|--------------------------------------------------------------------------
D|--------------------------------------------------------------------------
A|--5--5--5--5--5--5--5--5--5--5--5--5--5--5--5--5--6--6--6--6--6--6--6--6--
E|--------------------------------------------------------------------------



E|--------------------------------------------------------------------------
B|--------------------------------------------------------------------------
G|--------------------------------------------------------------------------
D|--------------------------------------------------------------------------
A|--9--9--9--9--9--9--9--9--5--5--5--5--5--5--5--5--5--5--5--5--5--5--5--5--
E|--------------------------------------------------------------------------



E|----------------------------------------------------------
B|----------------------------------------------------------
G|----------------------------------------------------------
D|----------------------------------------------------------
A|--6--6--6--6--6--6--6--6--10--10--10--10--10--10--10--10--
E|----------------------------------------------------------



E|--------------------------------------------------------------------------------------------------
B|--------------------------------------------------------------------------------------------------
G|--------------------------------------------------------------------------------------------------
D|--------------------------------------------------------------------------------------------------
A|--5--5--5--5--5--5--5--5--5--5--5--5--5--5--5--5--6--6--6--6--6--6--6--6--9--9--9--9--9--9--9--9--
E|--------------------------------------------------------------------------------------------------



E|--------------------------------------------------------------------------------------------------
B|--------------------------------------------------------------------------------------------------
G|--------------------------------------------------------------------------------------------------
D|--------------------------------------------------------------------------------------------------
A|--5--5--5--5--5--5--5--5--5--5--5--5--5--5--5--5--6--6--6--6--6--6--6--6--------------------------
E|--------------------------------------------------------------------------7--7--7--7--7--7--7--7--



E|--------------------------------------------------------------------------
B|--------------------------------------------------------------------------
G|--------------------------------------------------------------------------
D|--------------------------------------------------------------------------
A|-----------3-----------4--------------6--5--5--4--3--3--------------------
E|--2--0--2-----2--0--2-----2--0--2--3--------------------6--5--5--4--3--3--
http://www.guitartabcreator.com
Guitar Tab Creator is intended to store guitar tab created through the tool. It currently does not support in-line text editing. Any text you place in here will be lost. If you need to comment on your tab, please use the "Tab Notes" section located below.