Get What You Deserve

(/) Slide Up  (\) Slide Down  (h) Hammer On  (p) Pull Off  (b) Bend (r) Release (v) Vibrato

Intro (x2)
E|--0--|--5--|--0--|--5--|--
B|--0--|--5--|--0--|--5--|--
G|--0--|--5--|--0--|--5--|--
D|-----|-----|-----|-----|--
A|-----|-----|-----|-----|--
E|-----|-----|-----|-----|--


Verse (x2)
E|--0--|--5--|--9--|--7--|--
B|--0--|--5--|--9--|--7--|--
G|--0--|--5--|--9--|--7--|--
D|-----|-----|-----|-----|--
A|-----|-----|-----|-----|--
E|-----|-----|-----|-----|--


Pre-chorus (x2)
E|--2--4--5--
B|--2--4--5--
G|--2--4--5--
D|-----------
A|-----------
E|-----------


Chorus (x2)
E|--0--|--5--|--9--|--7--|--5--|--
B|--0--|--5--|--9--|--7--|--5--|--
G|--0--|--5--|--9--|--7--|--5--|--
D|-----|-----|-----|-----|-----|--
A|-----|-----|-----|-----|-----|--
E|-----|-----|-----|-----|-----|--


Bridge (x4)
E|--0--|--0--|--5--|--5--|--
B|--0--|--0--|--5--|--5--|--
G|--0--|--0--|--5--|--5--|--
D|-----|-----|-----|-----|--
A|-----|-----|-----|-----|--
E|-----|-----|-----|-----|--


Bridge (x2)
E|--2--4--5--
B|--2--4--5--
G|--2--4--5--
D|-----------
A|-----------
E|-----------

Chorus/Outro
http://www.guitartabcreator.com
Guitar Tab Creator is intended to store guitar tab created through the tool. It currently does not support in-line text editing. Any text you place in here will be lost. If you need to comment on your tab, please use the "Tab Notes" section located below.