Traditional Rock (double/triple stops)

(/) Slide Up  (\) Slide Down  (h) Hammer On  (p) Pull Off  (b) Bend (r) Release (v) Vibrato

E|------------------|------------------|--------------|--------------------------|-----
B|--12--12--12--12--|--10--10--10--10--|--7--6--5--0--|--0--2--0--2--0--2--0--0--|-----
G|--12--12--12--12--|--10--10--10--10--|--7--6--5--0--|--0--3--0--3--0--3--0--0--|-----
D|--12--12--12--12--|--10--10--10--10--|--7--6--5--0--|--0--3--0--3--0--3--0--0--|-----
A|------------------|------------------|--------------|--------------------------|-----
E|------------------|------------------|--------------|--------------------------|-----



E|-----------------------|--
B|--0--2--0--2--4--2--0--|--
G|--0--3--0--3--5--3--0--|--
D|--0--3--0--3--5--3--0--|--
A|-----------------------|--
E|-----------------------|--
http://www.guitartabcreator.com
Guitar Tab Creator is intended to store guitar tab created through the tool. It currently does not support in-line text editing. Any text you place in here will be lost. If you need to comment on your tab, please use the "Tab Notes" section located below.