The Demise of Barbara, and The Return of Joe

(/) Slide Up  (\) Slide Down  (h) Hammer On  (p) Pull Off  (b) Bend (r) Release (v) Vibrato

E|--------------------------------------------------------------------
B|--8-----6--8v-------------------------------------------------------
G|-----9-------------9------7--9v----v--v--7-----5--7--7--7--5--4-----
D|----------------------10--------------------7--------------------7--
A|--------------------------------------------------------------------
E|--------------------------------------------------------------------



E|------------------------------------------------------------------------------------------
B|--17------15--17--15------15--------------------17------15--17--15------15----------------
G|------17--------------17--------14--16--14----------17--------------17--------14--16--17--
D|------------------------------------------------------------------------------------------
A|------------------------------------------------------------------------------------------
E|------------------------------------------------------------------------------------------



E|--15----15--12--13--15------12--12----------12------10--10----------10--12--10--------------
B|------------------------------------13--15------------------10--13--------------13--12--10--
G|--------------------------------------------------------------------------------------------
D|--------------------------------------------------------------------------------------------
A|--------------------------------------------------------------------------------------------
E|--------------------------------------------------------------------------------------------
http://www.guitartabcreator.com
Guitar Tab Creator is intended to store guitar tab created through the tool. It currently does not support in-line text editing. Any text you place in here will be lost. If you need to comment on your tab, please use the "Tab Notes" section located below.