SLEEP WEEL SWEET MELODY

(/) Slide Up  (\) Slide Down  (h) Hammer On  (p) Pull Off  (b) Bend (r) Release (v) Vibrato
E|--------------5-----------------------5-----------------------5-----------------------5--
B|--0-----0--------0-----0-----0-----0-----0-----0-----0-----0-----0-----0-----0-----0-----
G|-----7-----7--------7-----7-----7-----------7-----7-----7-----------7-----7-----7--------
D|-----------------------------------------------------------------------------------------
A|-----------------------------------------------------------------------------------------
E|-----------------------------------------------------------------------------------------



E|-----------------------3-----------------------3-----------------------3-----------------------3-----
B|--0-----0-----0-----0-----0-----0-----0-----0-----0-----0-----0-----0-----0-----0-----0-----0-----0--
G|-----7-----5-----5-----------5-----5-----5-----------5-----5-----5-----------5-----5-----5-----------
D|-----------------------------------------------------------------------------------------------------
A|-----------------------------------------------------------------------------------------------------
E|-----------------------------------------------------------------------------------------------------



E|--------------0--------------------0-----------------------------------------------
B|--3-----3--------3-----3-----3-----------3--------------0--------------------0-----
G|-----0-----0--------0-----0-----0-----0-----2-----2--------2-----2-----2--------2--
D|-----------------------------------------------2-----2--------2-----2-----2--------
A|-----------------------------------------------------------------------------------
E|-----------------------------------------------------------------------------------



E|--------------------------------------------------------------------------------
B|--------------------------------------------------1-----------------------1-----
G|--------------------------------------------------------------------------------
D|--3-----3-----2--3-----3-----3-----2--3-----2--------2-----2-----2-----2-----2--
A|-----3-----3--------3-----3-----3--------3-----3--------3-----3-----3-----------
E|--------------------------------------------------------------------------------



E|------------------------------------------------
B|--------------1p0--------------------1p0--------
G|------------------------------------------------
D|--2-----2----------2-----2-----2----------2-----
A|-----2-----2----------2-----2-----2----------2--
E|------------------------------------------------



E|-----
B|-----
G|-----
D|-----
A|-----
E|-----



E|-----
B|-----
G|-----
D|-----
A|-----
E|-----



E|--------------------------------------------------------------------------------------------------------------------------------------------------------------------------------------------------------------
B|--------------------------------------------------------------------------------------------------------------------------------------------------------------------------------------------------------------
G|------------------------------------------12--12--12--12--14--14--14--14--14--14--14--14--14--14--14--14--12--12--12--12--------------------------------------------------------------------------------------
D|--14--14--14--14--14--14--14--14--14--14----------------------------------------------------------------------------------14--14--14--14--14--14--14--14--14--14--14--14--14--14--14--14--12--12--12--12--12--
A|--------------------------------------------------------------------------------------------------------------------------------------------------------------------------------------------------------------
E|--------------------------------------------------------------------------------------------------------------------------------------------------------------------------------------------------------------
http://www.guitartabcreator.com
Guitar Tab Creator is intended to store guitar tab created through the tool. It currently does not support in-line text editing. Any text you place in here will be lost. If you need to comment on your tab, please use the "Tab Notes" section located below.