jimi-ish

(/) Slide Up  (\) Slide Down  (h) Hammer On  (p) Pull Off  (b) Bend (r) Release (v) Vibrato
E|--------------------------------------|--------4-----------------------------|----------2------2--2--2--2--|--
B|--------------------------------------|--------5-----------------------------|----------4------4--4--4--5--|--
G|-------------9----9-----9-------------|--------6---------4----4--------------|----------4------4--4--4--4--|--
D|-------------9----9h11--9-------------|--------6----4----4h6--4-----4--------|----------4------4--4--4--4--|--
A|-------9h11----------------11--10--9--|--4--4--4----4h7----------7-----------|--2--2----2------2--2--2--2--|--
E|--0-----------------------------------|--------------------------------4--5--|-----------------------------|--



E|----0--0----0-------0-----0--------
B|----2--2----0----------------------
G|----2--2----1--1h2-----2-----------
D|----2--2----2----------------------
A|----0--0----2----------------------
E|------------0----------------------



E|-----------------------------------|---------------------------------|-----
B|-------------------x-x-x-----------|---------------------------------|-----
G|-------------9-----x-x-x--9-----9--|---------------------------------|-----
D|-------------9-----x-x-x--9h11--9--|--9------------------------------|-----
A|-------9h11------------------------|--9h11v----------------11--10--9\|-----
E|--0--------------------------------|---------------------------------|-----
http://www.guitartabcreator.com
Guitar Tab Creator is intended to store guitar tab created through the tool. It currently does not support in-line text editing. Any text you place in here will be lost. If you need to comment on your tab, please use the "Tab Notes" section located below.