another ditty

(/) Slide Up  (\) Slide Down  (h) Hammer On  (p) Pull Off  (b) Bend (r) Release (v) Vibrato

Intro/Verse:
E|----------2-----------------------|---------------------------------------|--
B|----------3----3----------2----2--|---------------------------------------|--
G|----------4----4----------2----2--|----------2----2--2--2--2--2--4--4--2--|--
D|----------4----4----------2----2--|----------0----0--0--0--0--0--0--0--0--|--
A|--2--2----2----2------------------|----------0----0--0--0--0--0--0--0--0--|--
E|------------------2--2------------|--3--3----3----3--3--3--3--3--3--3--3--|--



E|----------2-----------------------|-------------------------------|--
B|----------3----3----------2----2--|-------------------------------|--
G|----------4----4----------2----2--|----------2---------0--0-------|--
D|----------4----4----------2----2--|----------0----0h4--------4p0--|--
A|--2--2----2----2----------0-------|----------0--------------------|--
E|------------------2--2------------|--3--3----3--------------------|--


Chorus:
E|--2----2------2--2--2--3--|------------3----3----3--3--3--3--3--3--3--3--|--
B|--3----3------3--3--3--3--|------------3----3----3--3--3--3--3--3--3--3--|--
G|--4----4------2--2--2--0--|------------0----0----0--0--0--0--0--0--0--0--|--
D|--4----4------0--0--0--0--|------------0----0----0--0--0--0--0--0--0--0--|--
A|--2----2---------------2--|------------2----2----2--2--2--2--2--2--2--2--|--
E|-----------------------3--|------------3----3----3--3--3--3--3--3--3--3--|--



E|--2----2----0--0--0--0--0--|--3------3--------3--3--3--3--3--3--3--3--|--
B|--3----3----2--2--0--2--3--|--3------3--------3--3--3--3--3--3--3--3--|--
G|--4----4----2--2--2--2--2--|--0------0--------0--0--0--0--0--0--0--0--|--
D|--4----4----2--2--2--2--2--|--0------0--------0--0--0--0--0--0--0--0--|--
A|--2----2----0--0--0--0--0--|--2------2--------2--2--2--2--2--2--2--2--|--
E|---------------------------|--3------3--------3--3--3--3--3--3--3--3--|--


Bridge:
E|--------------------------|--------------------------|---------------------------|--
B|--------------------------|--------------------------|---------------------------|--
G|--6--6--6--6--6--6--6--6--|--4--4--4--4--4--4--4--4--|--6--6--6--6--6-11--11--11-|--
D|--0--0--0--0--0--0--0--0--|--0--0--0--0--0--0--0--0--|--0--0--0--0--0-0---0---0--|--
A|--0--0--0--0--0--0--0--0--|--0--0--0--0--0--0--0--0--|--0--0--0--0--0-0---0---0--|--
E|--5--5--5--5--5--5--5--5--|--3--3--3--3--3--3--3--3--|--5--5--5--5--5/10--10--10\|--



E|--------------------------|--
B|--------------------------|--
G|--4--4--4--4--4--4--4--4--|--
D|--0--0--0--0--0--0--0--0--|--
A|--0--0--0--0--0--0--0--0--|--
E|--3--3--3--3--3--3--3--3--|--


Quiet Chorus:
E|---------------------------------------|---------------------------|--
B|---------------------------------------|---------------------------|--
G|--7----7--------11--11--11--11--11--4--|--------4----4--4--4--4----|--
D|--0----0--------0---0---0---0---0---0--|--------0----0--0--0--0----|--
A|--0----0--------0---0---0---0---0---0--|--------0----0--0--0--0----|--
E|--7----7--------10--10--10--10--10--3--|--------3----3--3--3--3----|--



E|--------------------------------|--------------------------|--
B|--------------------------------|--------------------------|--
G|--7----7----6----6--6--6--7--7--|--4--4--4--4--4--4--4--4--|--
D|--0----0----0----0--0--0--0--0--|--0--0--0--0--0--0--0--0--|--
A|--0----0----0----0--0--0--0--0--|--0--0--0--0--0--0--0--0--|--
E|--7----7----5----5--5--5--7--7--|--3--3--3--3--3--3--3--3--|--
http://www.guitartabcreator.com
Guitar Tab Creator is intended to store guitar tab created through the tool. It currently does not support in-line text editing. Any text you place in here will be lost. If you need to comment on your tab, please use the "Tab Notes" section located below.