Song 1 (Lead Tab) Garrett

Go to this link to listen to the song and follow along 

http://www.facebook.com/anewtradition/app_178091127385


Riff starts at 0:27 ends at 0:37

E|--3-3-2-2-------------3-3-2-2-4-4-4-4-4-4--3-3-2-2-------------3-3-2-2-4(Let Ring Out)
B|----------3-3-3-3-3-3------------------------------3-3-3-3-3-3----------
G|------------------------------------------------------------------------
D|------------------------------------------------------------------------
A|------------------------------------------------------------------------
D|------------------------------------------------------------------------

Take a break during the first verse.

Chorus starts at 1:02 ends at 1:26

E|--------------------------------------------------------------------------------------------------
B|--------------------------------------------------------------------------------------------------
G|-7--------------------9-------------------11------------------------------------------------------
D|-x-(Play Eight Times)-x-(Play Four Times)-x---(Play Four Times)--(Repeat all of that 2 more times-
A|-5--------------------7-------------------9-------------------------------------------------------
D|--------------------------------------------------------------------------------------------------

Than during the chorus at 1:11-1:13 you play this

E|-----------------------------------------------------------------------
B|-----------------------------------------------------------------------
G|-7---------------------------------------------------------------------
D|-x(Play About Twelve Times)--(Now repeat the first part of the chorus)-
A|-5---------------------------------------------------------------------
D|-----------------------------------------------------------------------

Close to last part of the chorus 1:23-1:24

E|--------------------------------------------------------------------
B|--------------------------------------------------------------------
G|---------------------------11-------7-------------------------------
D|-(After you play the last)-x--(Play x-One time and let it ring out)-
A|---------------------------9--------5-------------------------------
D|--------------------------------------------------------------------

Last part of the chorus 1:25-1:27

E|------------------------------------------------
B|------------------------------------------------
G|---------------------------------------7-6-9-11-
D|(Than to end the chorus you play this)-x-x-x-x--
A|---------------------------------------5-4-7-9--
D|------------------------------------------------

(Take another break during the 2nd Verse)

(Repeat all of chorus)

Bridge 2:13-2:36 (Palm mute until 2:35)

E|-3(Play Eight Times)-2(Play Eight Times)------------------------
B|-----------------------------------------3(Play about 15 Times)-
G|----------------------------------------------------------------
D|----------------------------------------------------------------
A|----------------------------------------------------------------
D|----------------------------------------------------------------

Second Part of Bridge

E|-3(Play Eight Times)-2(Play Eight Times---------------------------
B|----------------------------------------3(Play Once/Let Ring Out)-
G|------------------------------------------------------------------
D|------------------------------------------------------------------
A|------------------------------------------------------------------
D|------------------------------------------------------------------

Play Last Chorus

That's It
Guitar Tab Creator is intended to store guitar tab created through the tool. It currently does not support in-line text editing. Any text you place in here will be lost. If you need to comment on your tab, please use the "Tab Notes" section located below.