Pop-Punk (Rock) Final Guitar Tab #1

NTRO: GUITAR

E|--------------------------------------------------------------
B|--------------------------------------------------------------
G|---------------5(x8)--------------------5(x8)-----------------
D|--10-9-5-2(x3)-5(x8)-5(x8)-7(x8)-3(x8)--5(x8)-5(x8)-7(x8)-3(x8)~
A|--------3-(x3)-3(x8)-5(x8)-7(x8)-3(x8)--3(x8)-5(x8)-7(x8)-3(x8)~
E|---------------------3(x8)-5(x8)-1(x8)--------3(x8)-5(x8)-1(x8)~

VERSE: 1

E|------------------------------------------------
B|------------------------------------------------
G|------------------------------------------------
D|-5(x4)-7(x4)-4(x4)-5(x4)--5(x4)-7(x4)-4(x4)-5(x4)~
A|-5(x4)-7(x4)-4(x4)-5(x4)--5(x4)-7(x4)-4(x4)-5(x4)~
E|-3(x4)-5(x4)-2(x4)-5(x4)--3(x4)-5(x4)-2(x4)-5(x4)~

CHORUS: 1

E|------------------------------------------------
B|------------------------------------------------
G|------------------------------------------------
D|-3(x8)-7(x8)-5(x8)-3(x8)--3(x8)-7(x8)-5(x8)-3(x8)~
A|-3(x8)-7(x8)-5(x8)-3(x8)--3(x8)-7(x8)-5(x8)-3(x8)~
E|-1(x8)-5(x8)-3(x8)-3(x8)--1(x8)-5(x8)-3(x8)-3(x8)~

VERSE: 2

E|-----------------------------------------------------------
B|-----------------------------------------------------------
G|-----------------------------------------------------------
D|-10-9-2-5--10-9-2-5--10-9-2-5--10-9-2-5--10-9-2-5--10-9-2-5
A|-------------------3-------------------3-------------------3~
E|------------------------------------------------------------

CHORUS: 3

E|------------------------------------------------
B|------------------------------------------------
G|------------------------------------------------
D|-3(x8)-7(x8)-5(x8)-3(x8)--3(x8)-7(x8)-5(x8)-3(x8)~
A|-3(x8)-7(x8)-5(x8)-3(x8)--3(x8)-7(x8)-5(x8)-3(x8)~
E|-1(x8)-5(x8)-3(x8)-3(x8)--1(x8)-5(x8)-3(x8)-3(x8)~

BRIDGE:(Just Gang Vocals, Drums, and Bass Repeats VERSE: 2)

REPEAT CHORUS! (4th) Let final bass note ring out!
Guitar Tab Creator is intended to store guitar tab created through the tool. It currently does not support in-line text editing. Any text you place in here will be lost. If you need to comment on your tab, please use the "Tab Notes" section located below.