Pop Punk Guitar #2 Not Finished

INTRO:

E|--------------------------------------------------7------------|
B|----------------------------------------------4-5---5(x4)4\9/5~|
G|-8~----6~----10~----13~----13~----8~----6~---------------------|
D|-x-----x------x------x------x-----x-----x----------------------|
A|-6~----4~----8~-----11~----11~----6~----4~---------------------|
E|---------------------------------------------------------------|

VERSE:

E|------------------------------
B|------------------------------
G|-11-----13------15------16----
D|-x-(x4)--x-(x4)--x-(x4)--x-(x4)
A|-9------11------13------14----
E|------------------------------
Guitar Tab Creator is intended to store guitar tab created through the tool. It currently does not support in-line text editing. Any text you place in here will be lost. If you need to comment on your tab, please use the "Tab Notes" section located below.