One Day (Lead Tab) Garrett

Here's the link to the song 

http://www.facebook.com/anewtradition/app_178091127385


Intro Part 1 0:01-0:16


E|-----------------------------------------------------------------
B|----9---7---10---7----9---7---10---7-(12 Harmonic)--(Play Twice)-
G|--9---9---9----9----9---9---9----9-------------------------------
D|-----------------------------------------------------------------
A|-----------------------------------------------------------------
E|-----------------------------------------------------------------

Pre-Chorus 0:21-0:27

E|----------------------
B|----9---7---10---7~~~-
G|--9---9---9----9------
D|----------------------
A|----------------------
E|----------------------

Chorus Part 1 0:27-0:46

E|--------------------------------------------------------------------------------------------------
B|--------------------------------------------------------------------------------------------------
G|--6-(Play About 16 Times)-8-(Play About 16 Times)-10-(Play About 16 Times)-8~-(Play About 8 Times)
D|--x-----------------------x-----------------------x------------------------x~---------------------
A|--4-----------------------6-----------------------8------------------------6~---------------------
E|--------------------------------------------------------------------------------------------------

Chorus Part 2 0:47-0:55

E|------------------------------------------------------------------------------------------
B|------------------------------------------------------------------------------------------
G|--6-(Play About 16 Times)-8-(Play About 16 Times)-10-(Play About 16 Times)-8-8--8-8--8-8~-
D|--x-----------------------x-----------------------x------------------------x-x--x-x--x-x~-
A|--4-----------------------6-----------------------8------------------------6-6--6-6--6-6~-
E|-------------------------------------------------------------------------------------------

Repeat Intro 0:56-1:13

Repeat Chorus 1:13-1:44

Bridge (Play Nothing)

That's It.









Guitar Tab Creator is intended to store guitar tab created through the tool. It currently does not support in-line text editing. Any text you place in here will be lost. If you need to comment on your tab, please use the "Tab Notes" section located below.