Truly Madly Deeply

(/) Slide Up  (\) Slide Down  (h) Hammer On  (p) Pull Off  (b) Bend (r) Release (v) Vibrato


E|----------------------10--11--11/12--12--12--12------------------------------------------
B|----------10--12--13---------------------------------12--13--12h13p12--10----------------
G|--10--12-------------------------------------------------------------------12--12--------
D|-----------------------------------------------------------------------------------------
A|-----------------------------------------------------------------------------------------
E|-----------------------------------------------------------------------------------------



E|----------------------------------------------------------------------10--12----------------
B|--13--------------------------------------10------10--12--13--12--13------------------------
G|------------10--9--------------9--10--12------12--------------------------------------------
D|-------------------12--11--12---------------------------------------------------------------
A|--------------------------------------------------------------------------------------------
E|--------------------------------------------------------------------------------------------
http://www.guitartabcreator.com
Guitar Tab Creator is intended to store guitar tab created through the tool. It currently does not support in-line text editing. Any text you place in here will be lost. If you need to comment on your tab, please use the "Tab Notes" section located below.