Sunshine of Your Love

(/) Slide Up  (\) Slide Down  (h) Hammer On  (p) Pull Off  (b) Bend (r) Release (v) Vibrato


E|--------------------------------------------------------
B|--------------------------------------------------------
G|--------------------------------------------------------
D|--11--11--9--11-----------------------------------------
A|-------------------11----10----9------------------------
E|------------------------------------9--12----9----------



E|--------------------------------------------------------
B|--------------------------------------------------------
G|--11--11--9--11-----------------------------------------
D|-------------------11----10----9------------------------
A|------------------------------------9--12----9----------
E|--------------------------------------------------------
http://www.guitartabcreator.com
Guitar Tab Creator is intended to store guitar tab created through the tool. It currently does not support in-line text editing. Any text you place in here will be lost. If you need to comment on your tab, please use the "Tab Notes" section located below.