NSync

(/) Slide Up  (\) Slide Down  (h) Hammer On  (p) Pull Off  (b) Bend (r) Release (v) Vibrato


E|---------------------------------------------------------------------------------------------
B|--------7------------5------------5--7--8--7--8--7--5-------------------5--------------------
G|----------------------------7--7-----------------------7-------------7-----7--6--7--6--------
D|--6--7---------6--7-----------------------------------------------7--------------------9-----
A|---------------------------------------------------------------------------------------------
E|---------------------------------------------------------------------------------------------



E|-----------
B|-----------
G|-----------
D|--0--7--9--
A|-----------
E|-----------
http://www.guitartabcreator.com
Guitar Tab Creator is intended to store guitar tab created through the tool. It currently does not support in-line text editing. Any text you place in here will be lost. If you need to comment on your tab, please use the "Tab Notes" section located below.