Duelin' Banjos

(/) Slide Up  (\) Slide Down  (h) Hammer On  (p) Pull Off  (b) Bend (r) Release (v) Vibrato


E|--------------------------------------------------
B|--0--1--3----0----1---------0---------------------
G|-----------------------2---------0----2-----------
D|--------------------------------------------------
A|--------------------------------------------------
E|--------------------------------------------------



E|--------------------------------------------------
B|--------------0-----0-----------------------------
G|-----0--0--2-----0-----2--------------------------
D|--0-----------------------------------------------
A|--------------------------------------------------
E|--------------------------------------------------



E|-----------------------------------------------------
B|-----------------------------------------------------
G|-----------------------------------------------------
D|-----------------------------------------------------
A|------------------2----3----5----3----2--------------
E|--3--3--3----5---------------------------------------
http://www.guitartabcreator.com
Guitar Tab Creator is intended to store guitar tab created through the tool. It currently does not support in-line text editing. Any text you place in here will be lost. If you need to comment on your tab, please use the "Tab Notes" section located below.