Cups Song

(/) Slide Up  (\) Slide Down  (h) Hammer On  (p) Pull Off  (b) Bend (r) Release (v) Vibrato


E|-------------------------------------------5--5--3--5--5----3---------------
B|--5--5--3--5--3--5--3--5--3------------------------------------5------------
G|-----------------------------5--5-------------------------------------------
D|----------------------------------------------------------------------------
A|----------------------------------------------------------------------------
E|----------------------------------------------------------------------------



E|-----3--5----5--3--------------------------------------------------------------
B|--5----------------5--3----------------3--5--3---------5--5--5--3--3--5--3-----
G|-------------------------5--5--5----5-----------5---------------------------5--
D|-------------------------------------------------------------------------------
A|-------------------------------------------------------------------------------
E|-------------------------------------------------------------------------------



E|----------------------------------------------5--5--3--5--3--5--3--3----------
B|----------------------------3-----3--5----------------------------------------
G|--5--5----2--------5--5--5-----5----------------------------------------------
D|------------------------------------------------------------------------------
A|------------------------------------------------------------------------------
E|------------------------------------------------------------------------------



E|-----3--5----5--3--------------------------------------------------------------
B|--5----------------5--3----------------3--5--3---------5--5--5--3--3--5--3-----
G|-------------------------5--5--5----5-----------5---------------------------5--
D|-------------------------------------------------------------------------------
A|-------------------------------------------------------------------------------
E|-------------------------------------------------------------------------------
http://www.guitartabcreator.com
Guitar Tab Creator is intended to store guitar tab created through the tool. It currently does not support in-line text editing. Any text you place in here will be lost. If you need to comment on your tab, please use the "Tab Notes" section located below.