Caterpillar exercise

(/) Slide Up  (\) Slide Down  (h) Hammer On  (p) Pull Off  (b) Bend (r) Release (v) Vibrato


E|-----------------------------------------------------------------------------9--10--11--12--
B|--------------------------------------------------------------9--10--11--12-----------------
G|-----------------------------------------------9--10--11--12--------------------------------
D|--------------------------------9--10--11--12-----------------------------------------------
A|-----------------9--10--11--12--------------------------------------------------------------
E|--9--10--11--12-----------------------------------------------------------------------------



E|--12--11--10--9-----------------------------------------------------------------------------
B|-----------------12--11--10--9--------------------------------------------------------------
G|--------------------------------12--11--10--9-----------------------------------------------
D|-----------------------------------------------12--11--10--9--------------------------------
A|--------------------------------------------------------------12--11--10--9-----------------
E|-----------------------------------------------------------------------------12--11--10--9--
http://www.guitartabcreator.com
Guitar Tab Creator is intended to store guitar tab created through the tool. It currently does not support in-line text editing. Any text you place in here will be lost. If you need to comment on your tab, please use the "Tab Notes" section located below.