Carol of the Bells Melody

(/) Slide Up  (\) Slide Down  (h) Hammer On  (p) Pull Off  (b) Bend (r) Release (v) Vibrato


E|--3----2--3--0--------3----2--3--0--------7----5--7---------7--5--7-----------
B|-----------------------------------------------------8---------------8--------
G|------------------------------------------------------------------------------
D|------------------------------------------------------------------------------
A|------------------------------------------------------------------------------
E|------------------------------------------------------------------------------



E|--12----12--12--10--------------------------------------------------------------------
B|--------------------13--12----12--12--10------10----10--10--12--10--------------------
G|------------------------------------------12--------------------------9----9--9--9----
D|--------------------------------------------------------------------------------------
A|--------------------------------------------------------------------------------------
E|--------------------------------------------------------------------------------------



E|--------------------------------------------------------------------------
B|-------------------8--10/12--10--8-----------------------8--10/12--10--8--
G|---------8--9--11------------------------------8--9--11-------------------
D|--9--11---------------------------------9--11-----------------------------
A|--------------------------------------------------------------------------
E|--------------------------------------------------------------------------



E|--3--2--3--0--------3--2--3--0----------------7----5----7----0-------------------
B|---------------------------------------------------------------------------------
G|---------------------------------------------------------------------------------
D|---------------------------------------------------------------------------------
A|---------------------------------------------------------------------------------
E|------------------------------------------------------------------------0--------
http://www.guitartabcreator.com
Guitar Tab Creator is intended to store guitar tab created through the tool. It currently does not support in-line text editing. Any text you place in here will be lost. If you need to comment on your tab, please use the "Tab Notes" section located below.