Kristian Stanfill - From the Inside Out (solo)

(/) Slide Up  (\) Slide Down  (h) Hammer On  (p) Pull Off  (b) Bend (r) Release (v) Vibrato

PART 1(double pick)
E|-----------------------------------------------
B|-----13-----15-----17-----15-----17-----18-----
G|-----------------------------------------------
D|-----------------------------------------------
A|-----------------------------------------------
E|-----------------------------------------------


PART 2
E|--------------------------------------------
B|--18--17--17--15--15--13--13------------15--
G|------------------------------11h12p11------
D|--------------------------------------------
A|--------------------------------------------
E|--------------------------------------------


PART 3
E|------15----------15------15------15------15------------------
B|--13------13--12------13------13------13------12--12--10--10--
G|--------------------------------------------------------------
D|--------------------------------------------------------------
A|--------------------------------------------------------------
E|--------------------------------------------------------------
http://www.guitartabcreator.com
Guitar Tab Creator is intended to store guitar tab created through the tool. It currently does not support in-line text editing. Any text you place in here will be lost. If you need to comment on your tab, please use the "Tab Notes" section located below.