How Deep the Father's Love-The Dispatch

(/) Slide Up  (\) Slide Down  (h) Hammer On  (p) Pull Off  (b) Bend (r) Release (v) Vibrato

Stave 1:

E|--------------------------------------------------------------------------------------
B|--------------------------------------------------------------------------------------
G|-----2--4--------4--4--------4--4--------4-----2--6--------6--6--------6--6--------6--
D|--0--------0-----------0-----------0--------0--------0-----------0-----------0--------
A|--------------------------------------------------------------------------------------
E|--2--2--3-----3-----3-----3-----3-----3-----2--2--5-----5-----5-----5-----5-----5-----

Stave 2:

E|--------------------------------------------------------------------------------------
B|--------------------------------------------------------------------------------------
G|-----2--4--------4--4--2--7--------7--7--------7--6--------6--6--------6--6--------6--
D|--0--------0-----------------0-----------0-----------0-----------0-----------0--------
A|--------------------------------------------------------------------------------------
E|--2--2--3-----3-----3--2--7-----7-----7-----7-----5-----5-----5-----5-----5-----5-----

Stave 3:

E|--------------------------------------------------------------------------------------------------
B|--------------------------------------------------------------------------------------------------
G|--4--------4--4--------4--4--------4--4--------4--6--------6--6--------6--6--------6--6--------6--
D|-----0-----------0-----------0-----------0-----------0-----------0-----------0-----------0--------
A|--------------------------------------------------------------------------------------------------
E|--3-----3-----3-----3-----3-----3-----3-----3-----5-----5-----5-----5-----5-----5-----5-----5-----

Stave 4:

E|--------------------------------------------------------------------------------------------------
B|--------------------------------------------------------------------------------------------------
G|--4--------4--4--------4--4--------4--4--------4--6--------6--6--------6--6--------6--6--------6--
D|-----0-----------0-----------0-----------0-----------0-----------0-----------0-----------0--------
A|--------------------------------------------------------------------------------------------------
E|--3-----3-----3-----3-----3-----3-----3-----3-----5-----5-----5-----5-----5-----5-----5-----5-----

Stave 5:

E|--------------------------------------------------------------------------------------------------
B|--------------------------------------------------------------------------------------------------
G|--7--------7--7--------7--7--------7--7--------7--6--------6--6--------6--6--------6--6--------6--
D|-----0-----------0-----------0-----------0-----------0-----------0-----------0-----------0--------
A|--------------------------------------------------------------------------------------------------
E|--7-----7-----7-----7-----7-----7-----7-----7-----5-----5-----5-----5-----5-----5-----5-----5-----

Stave 6:

E|-----------------------------------------------------------------------------
B|-----------------------------------------------------------------------------
G|--4--------4--4--------4--4--------4--4--------4--6--------6--6--------6--6--
D|-----0-----------0-----------0-----------0-----------0-----------0-----------
A|-----------------------------------------------------------------------------
E|--3-----3-----3-----3-----3-----3-----3-----3-----5-----5-----5-----5-----5--

http://www.guitartabcreator.com
Guitar Tab Creator is intended to store guitar tab created through the tool. It currently does not support in-line text editing. Any text you place in here will be lost. If you need to comment on your tab, please use the "Tab Notes" section located below.