Valley of Remember

(/) Slide Up  (\) Slide Down  (h) Hammer On  (p) Pull Off  (b) Bend (r) Release (v) Vibrato

E|-------------------------------------------------
B|-------------------------------------------------
G|-------------------------------------------------
D|--6--6--6--6--6--6--4--4--6--4----4--4--4--4--4--
A|--4--4--4--4--4--4--4--4--4--4----4--4--4--4--4--
E|--0--0--0--0--0--0--4--4--4--4----4--4--4--4--4--



E|--------------------------------
B|--------------------------------
G|--------------------------------
D|--6--6--6--6--6--6--------------
A|--4--4--4--4--4--4--6--6--7--4--
E|--0--0--0--0--0--0--4--4--5--2--



E|--
B|--
G|--
D|--
A|--
E|--
http://www.guitartabcreator.com
Guitar Tab Creator is intended to store guitar tab created through the tool. It currently does not support in-line text editing. Any text you place in here will be lost. If you need to comment on your tab, please use the "Tab Notes" section located below.