Unknown

(/) Slide Up  (\) Slide Down  (h) Hammer On  (p) Pull Off  (b) Bend (r) Release (v) Vibrato
E|---------------------------------------------------------------
B|---------------------------------------------------------------
G|---------------------------------------------------------------
D|---------------------------------------------------------------
A|--0h7p0h7----7----7--7--5--5--5----5--5--3--3--0h2----0h2p0h7--
E|---------------------------------------------------------------



E|------------------------------------------------
B|------------------------------------------------
G|------------------------------------------------
D|---------------------------4h5p4----------------
A|--7--7----7--7--5--5--5p0---------7----7--7--0--
E|------------------------------------------------



E|-------------------------------------------------
B|-------------------------------------------------
G|-------------------------------------------------
D|-------------------------------------------------
A|--7--7----7--7--5--5--5----5--5--3/7----0h7p0h7--
E|-------------------------------------------------



E|--------------------------------------
B|--------------------------------------
G|--------------------------------------
D|---------------------------4h5p4------
A|--7--7----7--7--5--5--5p0---------7v--
E|--------------------------------------



E|-----------------------------------------------
B|-----------------------------------------------
G|-----------------------------------------------
D|--9--9----9--9--7--7--7----7--7--5--5--5----2--
A|--7--7----7--7--5--5--5----5--5--3--3--3----2--
E|-----------------------------------------------



E|----------------------------------------------------
B|----------------------------------------------------
G|----------------------------------------------------
D|--------------------------------------5----5--5--5--
A|--2--2--2--5----5--5--5------2--2--2--3----3--3--3--
E|--0--0--0--3----3--3--3------0--0--0----------------



E|-----------------------------------------------------------------------------------------
B|-----------------------------------------------------------------------------------------
G|-----------------------------------------------------------------------------------------
D|--9--9--9--9--9--9--9--9--4--4--4--4--4--4--4--4-----------------------------------------
A|--7--7--7--7--7--7--7--7--2--2--2--2--2--2--2--2--5--5--5--5--5--5--5--5--7--7--7--7--7--
E|--------------------------------------------------3--3--3--3--3--3--3--3--5--5--5--5--5--



E|--
B|--
G|--
D|--
A|--
E|--
http://www.guitartabcreator.com
Guitar Tab Creator is intended to store guitar tab created through the tool. It currently does not support in-line text editing. Any text you place in here will be lost. If you need to comment on your tab, please use the "Tab Notes" section located below.