Tanc

(/) Slide Up  (\) Slide Down  (h) Hammer On  (p) Pull Off  (b) Bend (r) Release (v) Vibrato
E|------------------------------------------------------------------------
B|------------------------------------------------------------------------
G|------------------------------------------------------------------------
D|------------------------------------------------------------------------
A|-------------------------------------------------------------11--9------
E|--0--0--0--9----0--0--0--12--11--9----0--0--0--9----0--0--0---------12--



E|---------------------------------------------------------------
B|---------------------------------------------------------------
G|---------------------------------------------------------------
D|---------------------------------------------------------------
A|-------------------------------------------------------9-------
E|--0--0--0--9----0--0--0--11----0--0--0--12----0--0--0----------



E|-----------------------------------------------------------
B|-----------------------------------------------------------
G|-----------------------------------------------------------
D|-----------------------------------------------------------
A|----------------------------------------9------------------
E|--0--0--0--9----0--0--0--12----0--0--0-------0--0--0--11v--



E|-----------------------------------------------------------------
B|-----------------------------------------------------------------
G|-----------------------------------------------------------------
D|--------------------------------------------------------4--5--4--
A|--2--2--5----5--2--2--4----4--2--2--3----3--2--2--2--2--2--3--2--
E|--0--0--3----3--0--0--2----2--0--0--1----1--0--0--0--0-----------



E|-----------------------------------------------------------------
B|-----------------------------------------------------------------
G|-----------------------------------------------------------------
D|--------------------------------------------------------4--5--4--
A|--2--2--2--4----2--2--2--5----2--2--2--7----2--2--2--2--2--3--2--
E|--0--0--0--2----0--0--0--3----0--0--0--5----0--0--0--0-----------



E|-----------------
B|-----------------
G|-----------------
D|--4--5--7--5--4--
A|--2--3--5--3--2--
E|-----------------



E|--
B|--
G|--
D|--
A|--
E|--



E|----------------------------------------------------------------------------------
B|----------------------------------------------------------------------------------
G|----------------------------------------------------------------------------------
D|----------------------------------------------------------------------------------
A|--2--2--2--10--9----2--2--2--2--9--7--7----2--2--2--2--10--9----2--2--2--2--5--5--
E|--0--0--0--8---7----0--0--0--0--7--5--5----0--0--0--0--8---7----0--0--0--0--3--3--



E|--------------------------------------------
B|--------------------------------------------
G|--------------------------------------------
D|--------------------------------------------
A|--2--2--2--2--10--9----2--2--2--2--9--7--7--
E|--0--0--0--0--8---7----0--0--0--0--7--5--5--



E|-----------------------------------------
B|-----------------------------------------
G|-----------------------------------------
D|-----------------------------------------
A|--2--2--2--2--10--9----2--2--2--2--5--5--
E|--0--0--0--0--8---7----0--0--0--0--3--3--



E|--
B|--
G|--
D|--
A|--
E|--
http://www.guitartabcreator.com
Guitar Tab Creator is intended to store guitar tab created through the tool. It currently does not support in-line text editing. Any text you place in here will be lost. If you need to comment on your tab, please use the "Tab Notes" section located below.