Spider Web

(/) Slide Up  (\) Slide Down  (h) Hammer On  (p) Pull Off  (b) Bend (r) Release (v) Vibrato
E|--------------------------------------------------------
B|--------------------------------------------------------
G|--4--4--4--4--------------------------------------------
D|--2--2--2--2--2--2--2--2--7--7--7--5--5--5--5--5--4--4--
A|--------------0--0--0--0--5--5--5--3--3--3--3--3--2--2--
E|--------------------------------------------------------



E|--------------------------------------------------------------------------
B|--------------------------------------------------------------------------
G|--4--4--4--4--------------------------------------------------------------
D|--2--2--2--2--2--2--2--2--7--7--7--5--5--5--5--5--5--5--5--4--4--4--4--4--
A|--------------0--0--0--0--5--5--5--3--3--3--3--3--3--3--3--2--2--2--2--2--
E|--------------------------------------------------------------------------



E|------------------------------------------------------------------
B|------------------------------------------------------------------
G|------------------------------------------------------------------
D|------------------------------------------------------------------
A|--7--7----7--9--9------9--10--10------10--9--9--9--9--9--9--9--9--
E|--5--5----5--7--7------7--8---8-------8---7--7--7--7--7--7--7--7--



E|--------------------------------------------------------------------
B|--------------------------------------------------------------------
G|--------------------------------------------------------------------
D|--------------------------------------------9--9--9--9--9--9--9--9--
A|--7--7------7--9--9------9--10--10------10--7--7--7--7--7--7--7--7--
E|--5--5------5--7--7------7--8---8-------8---------------------------



E|---------------------------------------------------------------------
B|---------------------------------------------------------------------
G|---------------------------------------------------------------------
D|---------------------------------------------------------------------
A|--2----2----2--2--2--2----9--9----9--10--10--10----5--5--5--7--5--2--
E|--0----0----0--0--0--0----7--7----7--8---8---8-----3--3--3--5--3--0--



E|--------------------------------------------------------------------
B|--------------------------------------------------------------------
G|--------------------------------------------------------------------
D|--------------------------------------------------------------------
A|--2------2----5--5--5--4----4--5--4--2------2--2--2--2--2--4--5--4--
E|--0------0----3--3--3--2----2--3--2--0------0--0--0--0--0--2--3--2--



E|-----------------------------------------------------------------------
B|-----------------------------------------------------------------------
G|-----------------------------------------------------------------------
D|-----------------------------------------------------------------------
A|--x--x--x--x----5--4--2--------2--2--4--5--4----x--x--x--x----5--4--2--
E|--x--x--x--x----3--2--0--------0--0--2--3--2----x--x--x--x----3--2--0--



E|--
B|--
G|--
D|--
A|--
E|--
http://www.guitartabcreator.com
Guitar Tab Creator is intended to store guitar tab created through the tool. It currently does not support in-line text editing. Any text you place in here will be lost. If you need to comment on your tab, please use the "Tab Notes" section located below.