Rust

(/) Slide Up  (\) Slide Down  (h) Hammer On  (p) Pull Off  (b) Bend (r) Release (v) Vibrato
E|-----7--------10--------9--------7-----------
B|--------7---------7--------7--------7--------
G|--7--------7---------7--------7--------7--7--
D|---------------------------------------------
A|---------------------------------------------
E|---------------------------------------------



E|--0--0--0--0--0--0--0--0--0--0-----
B|--0--0--0--0--0--2--1--1--1--0-----
G|--0--0--0--0--2--2--0--0--0--0-----
D|--2--2--2--2--2--2--2--2--2--2-----
A|--2--2--2--2--0--0--3--3--3--3-----
E|--0--0--0--0--x--x--x--x--x--x-----



E|-------------------------------------------
B|-------------------------------------------
G|-------------------------------------------
D|-------------5----------4------------------
A|--2----------3----------2----------5----5--
E|--0--------------------------------3----3--



E|--------------------------------------------------------------------------------------------------
B|--------------------------------------------------------------------------------------------------
G|--------------------------------------------------------------------------------------------------
D|--------------------------5--5--5--5--5--5--5--5--4--4--4--4--4--4--4--4--------------------------
A|--2--2--2--2--2--2--2--2--3--3--3--3--3--3--3--3--2--2--2--2--2--2--2--2--5--5--5--5--4--4--4--4--
E|--0--0--0--0--0--0--0--0--------------------------------------------------3--3--3--3--2--2--2--2--



E|--------------------------------------------------------------------------------------------------
B|--------------------------------------------------------------------------------------------------
G|--------------------------------------------------------------------------------------------------
D|--------------------------------------------------------------------------------------------------
A|--7--7--7--7--7--7--7--7--5--5--5--5--5--5--5--5--4--4--4--4--4--4--4--4--4--4--4--4--4--4--4--5--
E|--5--5--5--5--5--5--5--5--3--3--3--3--3--3--3--3--2--2--2--2--2--2--2--2--2--2--2--2--2--2--2--3--



E|--
B|--
G|--
D|--
A|--
E|--
http://www.guitartabcreator.com
Guitar Tab Creator is intended to store guitar tab created through the tool. It currently does not support in-line text editing. Any text you place in here will be lost. If you need to comment on your tab, please use the "Tab Notes" section located below.