Roots

(/) Slide Up  (\) Slide Down  (h) Hammer On  (p) Pull Off  (b) Bend (r) Release (v) Vibrato
E|-------------------------------------------------------
B|-------------------------------------------------------
G|-------------------------------------------------------
D|--3---------------3---------3---------3---------3------
A|--5------------5---------5---------5---------5---------
E|-------------------------------------------------------



E|--------------------------------------------------------------
B|--------------------------------------------------------------
G|--------------------------------------------------------------
D|-------3--0-------2------------------3--5----7--5----7--5--3--
A|--5----------3-------3h5--------5-----------------------------
E|--------------------------------------------------------------



E|----------------------------------------------------
B|----------------------------------------------------
G|----------------------------------------------------
D|-----3----0h3p0-----2-------------------------------
A|--5--------------3-----3h5----5h7----7h8----8p7--5--
E|----------------------------------------------------



E|---------------------------------------------------
B|---------------------------------------------------
G|---------------------------------------------------
D|--2--3--2--0------2--3--2--0------0--0--0--0-------
A|----------------------------------------------3----
E|---------------------------------------------------



E|-------------------------------------------------------------
B|-------------------------------------------------------------
G|-------------------------------------------------------------
D|-----3--0--5----7--5--3--5--3--0---------3--0-------2--------
A|--5-----------------------------------5--------3-------3--5--
E|-------------------------------------------------------------



E|----------------------------------
B|----------------------------------
G|----------------------------------
D|-----3-----3-----------3-------3--
A|--5-----5-----------5-------5-----
E|----------------------------------



E|-----------------------------------------------------
B|-----------------------------------------------------
G|-----------------------------------------------------
D|-----3-----3-----3-----3-----7-----7-----7-----7-----
A|--5-----5-----5-----5-----5-----5-----5-----5--------
E|-----------------------------------------------------



E|--------------------------------------------------
B|--------------------------------------------------
G|--------------------------------------------------
D|-----2-----2-----2-----2-----2-----2-----2--3--2--
A|--3-----3-----3-----3-----3-----3-----3-----------
E|--------------------------------------------------



E|--------------------------------------------------
B|--------------------------------------------------
G|--------------------------------------------------
D|--3--3--3--3--3--3--3--3--7--7--7--7--7--7--7--7--
A|--5--5--5--5--5--5--5--5--5--5--5--5--5--5--5--5--
E|--------------------------------------------------



E|--------------------------------------------------
B|--------------------------------------------------
G|--------------------------------------------------
D|--2--2--2--2--2--2--2--2--------------------------
A|--3--3--3--3--3--3--3--3--5--5--5--5--5--5--5--5--
E|--------------------------3--3--3--3--3--3--3--3--



E|-----------------------------------------------------------------------
B|-----------------------------------------------------------------------
G|--------2--------2--------2--------2--------2--------2--2--2--2--2--2--
D|--0--3-----0--3-----0--3-----0--3-----0--3-----0--3--------------------
A|-----------------------------------------------------------------------
E|-----------------------------------------------------------------------



E|-------------------------------------------------------------
B|-------------------------------------------------------------
G|--2--4--5--4--2------2--2--3--2--2------2h4p2h4p2--4h5p4--2--
D|-------------------------------------------------------------
A|-------------------------------------------------------------
E|-------------------------------------------------------------



E|--------------------------------------------------------------
B|--------------------------------------------------------------
G|--5--4--2--0--2----5--4--2--0--2----4--5--4--2----4--5--4--2--
D|--------------------------------------------------------------
A|--------------------------------------------------------------
E|--------------------------------------------------------------



E|------------------------------------------------------------
B|------------------------------------------------------------
G|--2--4--2--4h2p4h2p4h2p4h2p4h2p4h2p4----5--4----4h5p4----2--
D|------------------------------------------------------------
A|------------------------------------------------------------
E|------------------------------------------------------------



E|---------------------------------------------------
B|---------------------------------------------------
G|--4h5p4--2-------2--4h5p4----2----0--0--0--0--0h2--
D|------------4--------------------------------------
A|---------------------------------------------------
E|---------------------------------------------------



E|--------------------------------------------------------------------
B|--------------------------------------------------------------------
G|--0h2--2--2h4--4--4h5--5--7--5--4----7p5--5p4--4h2--2p0----------3--
D|---------------------------------------------------------5h3--3-----
A|--------------------------------------------------------------------
E|--------------------------------------------------------------------



E|-----------------------------------------------------------------
B|-----------------------------------------------------------------
G|-----------------------------------------------------------------
D|--3--2-----2-----------------------------------------------------
A|--------3-----3--3--5----5--7--7----5--5--5--5--7--7-------------
E|-----------------------------------------------------------------



E|-----------------------------------------------------------------------
B|-----------------------------------------------------------------------
G|-----------------------------------------------------------------------
D|-----------------------------------------------------------------------
A|--3--5--3--5--3--5--3--5--3--5--3--5--3--5--3--5--3--5--3--5--3--5--3--
E|-----------------------------------------------------------------------



E|--
B|--
G|--
D|--
A|--
E|--



E|------------------------------------------------
B|------------------------------------------------
G|------------------------------------------------
D|-------3--0-------------------------------------
A|--5----------3----3--3h5--5h7--7h8--8p7--5------
E|------------------------------------------------



E|------------------------------------------------------
B|------------------------------------------------------
G|---------------------------------------------0--------
D|--0--2--3--2--0-------0--2--3--2----2--3--2-----2--0--
A|-------------------3----------------------------------
E|------------------------------------------------------



E|--------------------------------------------------------------------
B|--------------------------------------------------------------------
G|--2-------------2----------2----------------------------0-----------
D|-----3--2----------3--2-------3--2--0-------3--2--0--3-----3--2--0--
A|-----------3---------------------------3----------------------------
E|--------------------------------------------------------------------



E|-------------------------
B|-------------------------
G|-------------------------
D|-------------------------
A|--3h0--5h0--7h0--8h7--7--
E|-------------------------



E|---------------------------------------------------------------
B|---------------------------------------------------------------
G|------------------------2--------------------------------------
D|--2h3p2--0--2----2h3p2-------2h3p2--0--2-----------------------
A|------------------------------------------3--5--3--5--3--5--3--
E|---------------------------------------------------------------



E|-------------------------------------
B|-------------------------------------
G|-------------------------------------
D|-------------------------------------
A|--3h5--5--3h5--5----3h5--5--7--7--5--
E|-------------------------------------



E|-----------------------------------------------------------------
B|-----------------------------------------------------------------
G|-----------------------------------------------------------------
D|-----------------------------------------------------3--3--3-----
A|--3h5--5--3h5--5--3h5--5--3--5----3h5--5--3h5--5--3--------------
E|-----------------------------------------------------------------



E|---------------------------------------------------------------------
B|------------------------------------------------------------------2--
G|--2-------------2----------------------------------------------------
D|-----3--2----------3--2--2h3p2-------2-----3p2--3p2--3p2--3p2--------
A|-----------3--------------------3-------3----------------------3-----
E|---------------------------------------------------------------------



E|----------------------------------------
B|----------------------------------------
G|--2--0--2--0--2--4--3--2--0--2--3--2p0--
D|----------------------------------------
A|----------------------------------------
E|----------------------------------------



E|-------------------------------------------------------------
B|-------------------------------------------------------------
G|--------------------------2----------------------2-----------
D|--2--3--2-----2--3--2----------2--3--2-----2--3-----3--2-----
A|-----------3-----------3----------------3-----------------3--
E|-------------------------------------------------------------



E|-------------------------------------------------------------------------
B|-------------------------------------------------------------------------
G|-------------------------------------------------------------------------
D|--2--3--2--0-----------2-------------------3--0-------2------------------
A|--------------3--2--3-----3----3h5------5--------3-------3--5----3----0--
E|-------------------------------------------------------------------------



E|--------------------------------------------------------------------------
B|--------------------------------------------------------------------------
G|--------------------------------------------------------------------------
D|-----------------------------------------------------------------3--------
A|--------------------------------------------------------------5-----5-----
E|--------------------------------------------------------------------------
http://www.guitartabcreator.com
Guitar Tab Creator is intended to store guitar tab created through the tool. It currently does not support in-line text editing. Any text you place in here will be lost. If you need to comment on your tab, please use the "Tab Notes" section located below.