Fucked Up

(/) Slide Up  (\) Slide Down  (h) Hammer On  (p) Pull Off  (b) Bend (r) Release (v) Vibrato

E|--------------------------------------------------------------------
B|--------------------------------------------------------------------
G|--------------------------------------------------------------------
D|-----------------------------------------------------5--x--x--x--x--
A|--2--x--x--x--x--2--x--x--x--x--2--x--x--x--x--2--5--3--x--x--x--x--
E|--0--x--x--x--x--0--x--x--x--x--0--x--x--x--x--0--3-----------------



E|----------------------------------
B|----------------------------------
G|----------------------------------
D|--5--x--x--x--x--4----3--2--------
A|--3--x--x--x--x--2----------5--2--
E|-----------x----------------------



E|--------------------------------------------------
B|--------------------------------------------------
G|--------------------------------------------------
D|--4--4--4--5--5--5--------------------------------
A|--2--2--2--3--3--3--5--5--5--5--5--5--5--5--5-----
E|--------------------3--3--3--3--3--3--3--3--3-----



E|--------------------------------------------------
B|--------------------------------------------------
G|--------------------------------------------------
D|--------------------------------------------------
A|--2----2----2----2----2----4----4----5----5----5--
E|--0----0----0----0----0----2----2----3----3----3--



E|--
B|--
G|--
D|--
A|--
E|--
http://www.guitartabcreator.com
Guitar Tab Creator is intended to store guitar tab created through the tool. It currently does not support in-line text editing. Any text you place in here will be lost. If you need to comment on your tab, please use the "Tab Notes" section located below.