Checkmate

(/) Slide Up  (\) Slide Down  (h) Hammer On  (p) Pull Off  (b) Bend (r) Release (v) Vibrato
E|--------------------------------------------------------------
B|--------------------------------------------------------------
G|--------------------------------------------------------------
D|--------------------------------------------------------------
A|--12--9--9----9--12--9--9--9----9--9--7--7--7--7--9--9--9--9--
E|--10--7--7----7--10--7--7--7----7--7--5--5--5--5--7--7--7--7--



E|--------------------------------------------------------------
B|--------------------------------------------------------------
G|--------------------------------------------------------------
D|--------------------------------------------------------------
A|--5----7--7----7--5--7--7--7----7--7--9--9--9--9--9--9--9--9--
E|--3----5--5----5--3--5--5--5----5--5--7--7--7--7--7--7--7--7--



E|----------------------------------------------------------------
B|----------------------------------------------------------------
G|----------------------------------------------------------------
D|----------------------------------------------------------------
A|--4----5--5----5--4--5--5--5----5--5--7--7--7----7--9--9--9--9--
E|--2----3--3----3--2--3--3--3----3--3--5--5--5----5--7--7--7--7--



E|--
B|--
G|--
D|--
A|--
E|--
http://www.guitartabcreator.com
Guitar Tab Creator is intended to store guitar tab created through the tool. It currently does not support in-line text editing. Any text you place in here will be lost. If you need to comment on your tab, please use the "Tab Notes" section located below.